Guitaretab - guitar tabs
Song name
# A B C D E F G H I J K L M N O P Q R S T U V W X Y Z

Todd Agnew - Fullness Found tab

Todd Agnew's Fullness Found
Reflection of Something
(c) 2005 Ardent Music


SOLO
[ Tab from: http://www.guitaretab.com/t/todd-agnew/116484.html ]
-10b(12)-10----10------------------------7--------------------------|
-------------12--12-----10-7-------------7--------------------------|
-----------------------------10p9p7------7-----9-7---9-9b(10)-7-----|
-----------------------------------7-----9---------9-------------9--|
--------------------------------------------------------------------|
--------------------------------------------------------------------|


--------------------------------------------------------------------|
---------------------------------12---------12~ --------------------|
------------------------7-9 / 11b-----9-----------------------------|
-7-9-11--------------7-9---------------12-9-------------------------|
-------12-9-------7-9-----------------------------------------------|
--------------------------------------------------------------------|
Related for Fullness Found tab