Song name
# A B C D E F G H I J K L M N O P Q R S T U V W X Y Z

Todd Agnew - In The Middle Of Me tab

Highlighted       Show chord diagrams
In the Middle of Me
Todd Agnew
Copyright: 2005 Ardent/Koala Music (Admin. by Ardent Music LLC)
CCLI Song No. 4432353
Album: Reflection of Something


Intro:  E A 4X

Verse1
A    E
     A
     E
     A
     E
     A

Chorus:
     B
A    B
     E
A    E

Verse2
A    E
     A
     E
     A
     E
     A

Chorus

Bridge:

Intro to bridge:  Power Chords
     E -----------------------------------|
     B ----------9---10---9---------------|
     G -----11---7----7---7---------------|
     D ------9----------------------------|
     A -----------------------------------|
     E -----------------------------------|

A    E
A    B      A
           C#m7
B
A

Verse:3

     E
     A
     E
     A
     E
     A

Chorus

I have not figured out that neat little riff he does but I will unless some one else
does first. I think this tab at least gets the song in the fingers. I could not find it 
where and it
touched the bones of my soul and had to be able to play it. Please improve it.
bpeery....><}}}">

Todd Agnew, In the Middle (Reflection of Somthing Album)

Main Riff

e  --------------x----------------------|
B ---------------x-------------------2--|
G --------1----1-x----------------2--2--|
D --------0h2----x-------------------2--| strum and mute A chord a couple of times, then repeat
A --------0h2----x---4h2-4h2---------0--|
E ---------------x-----------3--0-------|
Tap to rate this tab
# A B C D E F G H I J K L M N O P Q R S T U V W X Y Z