Song name
# A B C D E F G H I J K L M N O P Q R S T U V W X Y Z

Todd Agnew - Our Great God tab

Intro and Solo of Our Great God

Intro
e---------8-6-5-3---5-5-3--------------|
b--5-6-8------------------6-6-5--------|
g---------------------------0---5------|
d--------------------------------------|
a--------------------------------------|
e--------------------------------------|

Solo
e------------------------------12-13-12-----------|
b-10-10-9/10/9---9-10-12-15-15-----------13-------|
g-------------------------------------------12-12-|
d-------------------------------------------------|
a-------------------------------------------------|
e-------------------------------------------------|
Tap to rate this tab
 
# A B C D E F G H I J K L M N O P Q R S T U V W X Y Z