Song name
# A B C D E F G H I J K L M N O P Q R S T U V W X Y Z

Todd Agnew - Least Of These tab

capo 2


my first attempt at a tab
hope it makes sense

great song...super easy for beginners

intro:

e---------------------------------|
b---------------------------------|
g-9-9-9-9-9-9-9--9-9-9------------|
d-8-8-8-8-8-8-8--9-9-9-x-x--------| repeat
a-7-7-7-7-7-7-7--7-7-7-x-x--------|
E-0-0-0-0-0-0-0--0-0-0-x-x-3p0-3--|


verse:

e----------------------------------------------------------|
b----------------------------------------------------------|
g----------------------------------------------------------|
d----------------------------------------------------------|
a-2-------2-------2-----2------2-------2-------2-2-2-------|
E-0-0-0-0-0-0-0-0-0-0-0-0-3b-0-0-0-0-0-0-0-0-0-0-0-0-3b-3b-|


pre chorus:

Cadd9  D   G  A    listen to album to catch the rythym...very easy to hear


chorus:

 E5  G     A   D
e---------------------|
b--------------3-3-0--|
g----------2---2-2-0--| play 3 times
d-2--------2-x-0-0-0--|
a-2-x----x-0-x--------|
E-0-x-3b-x---x--------|


e----------------------|
b----------------------|
g----------2-0---------|
d-2--------2-0--6/7--6-|
a-2-x----x-0-0--4/5--4-|
E-0-x-3b-x-------------|


that's pretty much all there is to it...
Tap to rate this tab
 
# A B C D E F G H I J K L M N O P Q R S T U V W X Y Z