Song name
# A B C D E F G H I J K L M N O P Q R S T U V W X Y Z

Todd Agnew - In The Middle Of Me tab

-------------------------------------------------------------------------------
	          In The Middle Of Me - Todd Agnew
-------------------------------------------------------------------------------
Tabbed by: Jolly
Email: willm.mw@gmail.com

(This is the way I play this song. I know there are a few notes I don't have. Feel 
free to add your own little blues licks.)

Tuning: standard

intro:
e|------------------------------------------------------------------|
B|---------15--------------15---------------------------------------|
G|---------14--------------14---------------------------------------|
D|---------12--------------12---------------------------------------|
A|------------------------------------------------------------------|
E|--0-0-------------0-0---------------------------------------------|

Main riff:
e|-------------------------------------0----------------------------|
B|-------------------------------------0------2--2---3-3----2-------|
G|---11/13--13--------6\4/6\4-----------------2--2---2-2----2-------|
D|--------------------------------------------2--2---4-4----2-------|
A|---9/11---11--------4\2/4\2-----------------0--0---0-0----0-------|
E|-------------------------------3b--0------------------------------|

Verse: (I need a little more....)
       E   A   E   A  B  E  A
e|-----0---5---0---5--7--0--5---------------------------------------|
B|-----5---5---5---5--7--5--5---------------------------------------|
G|-----4---6---4---6--8--4--6---------------------------------------|
D|-----6---7---6---7--9--6--7---------------------------------------|
A|-----7---7---7---7--9--7--7---------------------------------------|
E|-----0-------0---------0------------------------------------------|

Pre Chorus: (Cause I looked as deep...)
         B   A    B
Bridge: (I need more of You and less of me....)
         A   E     A     D   A    C#m    B   A    B

| b  bend
| /  slide up
| \  slide down
| h  hammer-on
| p  pull-off
| ~  vibrato
| +  harmonic
| x  Mute note
Tap to rate this tab
 
# A B C D E F G H I J K L M N O P Q R S T U V W X Y Z