Todd Agnew - Isaiah 6 tab

----------------------------------------------------------------------------
			     Isaiah 6 - Todd Agnew
----------------------------------------------------------------------------
Tabbed by:CJVthe1MB

Capo: One

Tuning:  Standard

This is my first TAB.   Well, here it is!

Intro and verses:
              ^ ^        ^        ^      ^  
e|----0---0-0-0-0---0--0-0-0----0-0-0--0-0-0-------------------------------|
B|----0---0-0-0-0---0--0-0-0----0-0-0--0-0-0-------------------------------|
G|----1---1-1-1-1---1--1-1-1h2--2-2-2--2-1-1-------------------------------|
D|----2---4-4-4-----2--0-0-0h2--2-2----2-0-2-------------------------------|
A|----2---2-2-2-----2--0-0-0----0-0----0-0-2-------------------------------|
E|----0---0-0-0---0-0----------------------0-------------------------------|

Chorus and Bridge:
       ^   ^      ^   ^         ^   ^ 
e|---0-0-0-0-X--0-0-0-0-X--0--0-0-0-0-X--0---------------------------------|
B|---0-0-0-0-X--0-0-0-0-X--0--0-0-0-0-X--0---------------------------------|
G|---1-1-1-1-X--1-1-1-1-X--1--2-2-2-2-X--2---------------------------------|
D|---2-2-2-2-X--2-2-2-2-X--2--2-2-2-2-X--2---------------------------------|
A|---2-2-2-2-X--2-2-2-2-X--2--0-0-0-0-X--0---------------------------------|
E|---4-4-4-4-X--4-4-4-4-X--4-----------------------------------------------|
       ^   ^      ^   ^           ^            ^
e|---0-0-0-0-X--0-0-0-0-X--0--0-0-0-X--0---0-0-0-X--0----------------------|
B|---0-0-0-0-X--0-0-0-0-X--0--0-0-0-X--0---0-0-0-X--0----------------------|
G|---1-1-1-1-X--1-1-1-1-X--1--4-6-6-X--2---4-6-6-X--2----------------------|
D|---2-2-2-2-X--2-2-2-2-X--2--4-6-6-X--2---4-6-6-X--2----------------------|
A|---2-2-2-2-X--2-2-2-2-X--2--2-4-4-X--0---2-4-4-X--0----------------------|
E|---4-4-4-4-X--4-4-4-4-X--4-----------------------------------------------|



Key:  
h= Hammer on
X= Palm Mute
^=Strum Up
Tap to rate this tab
 
# A B C D E F G H I J K L M N O P Q R S T U V W X Y Z