Song name
# A B C D E F G H I J K L M N O P Q R S T U V W X Y Z

Todd Hannigan - Thicker Than Water tab

todd hannigan - thicker than water

i've heard this song on a tv commercial yesterday and fell directly in love
with it. never heard about todd hannigan before but he seems to be a lousy
nick drake rip-off, anyway it`s a great and simple song. here it goes:


e|-------------------------------0-let ring------------------0-let ring--|
B|-------------------------------0-----------0-0-0-----0-0-0-0-----------|
G|-----1-1-1------1-1-1----1-1-1-1--1-1-1----1-1-1-----1-1-1-1-----------|
D|-----2-2-2------2-2-2----2-2-2-2--2-2-2----2-2-2-----2-2-2-2-----------|
A|-----2-2-2------2-2-2----2-2-2-2--2-2-2-0-------0h2--------------------|
E|--0--0-0-0-0h2--0-0-0-0--0-0-0-----------------------------------------|

  chorus
e|----0-0-0--------------------------------------------------------------|
B|----5-5-5--------------------------------------------------------------|
G|----6-6-6--------------------------------------------------------------|
D|----6-6-6----6-6-6----7-7-7----4-4-4--4--4-4-4----4-4-4----------------|
A|--4-4-4-4----6-6-6----7-7-7----4-4-4--4--4-4-4----4-4-4----------------|
E|-----------4-4-4-4--5-5-5-5--2-2-2-2--2--2-2-2--2-2-2-2--3-2-0---------|


e|-----------------------------|
B|-----------------------------|
G|------------------1--1-1--1--|
D|------------------2--2-2--2--|
A|--2--2-2--2--2-2--2--2-2--2--|
E|--2--2-2--2--2-2--0--0-0--2--|
  
running just as fast as you can ...

tabbed by mab

http://www.toddhannigan.com/
Tap to rate this tab
 
# A B C D E F G H I J K L M N O P Q R S T U V W X Y Z