Todd Hannigan - Courtside Part Deux tab

**The actual song is done with a bass and guitar, but I've blended both to give a full 
to the song. Acoustic guitar only.


Intro & Verse:

these are just the notes/chords that are played, the strum pattern is easy enough:

   Part A                               Part B
e|----0-------0------|    |------0-------------0-------------------0-|
B|----2-------2------|    |------2-------------2-------------------2-|
G|----2-------2------|    |------2-------------2-------------------2-|
D|----2-------2------|    |------2-------------2-------------------2-|
A|0---0-------0------|    |-0----0-------4-----4--------------0----0-|
D|---------0---------|    |--------------4---------------------------|


                           buckets of sin...      bottles of grin

     Part C
e|--------2-------2-----------------0---|
B|--------4-------3-----------------2---|
G|--------4-------2-----------------2---|
D|--------4-------0-----------------2---|
A|--------2-------0-----------------0---|
D|----------------0---------------------|

   ...and bags of confidence


Part D is the same as C, but each chord is played about twice as long


Part E:

e|----------------------0--------2--|
B|----------------------0--------3--|
G|--------------2-------1--------2--|
D|---------5----4-------2--------0--|
A|---------5----4-------2--------0--|
D|---------5----4-------2--------0--|

   ...and I've had the run-around


Part F:
e|---------0----------0----------0----------0-------2--|
B|---------2----------2----------2----------2-------3--|
G|---------2----------2----------2----------2-------2--|
D|---------2----------2----------2----------2-------0--|
A|----0----0-----4----4-----2----2-----4----4-------0--|
D|--------------------------2----2-----4----4-------0--|

Part G:
e|-------------------------------------------------------------|
B|---------2-------------2--------------2---------------2------|
G|------------2-------2-----2--------2-----2---------2-----2---|
D|------2----------2-------------------------------------------|
A|----0-----------------------------------------2h4------------|
D|-------------------------------2h4---------------------------|

     ...sittin by the courtside...

Part H:

e|----------------------------------------------|
B|-------2-------2------------3---------3-------|
G|-----2---2---2---2--------2---2-----2---2-----|
D|-----------2----------------------0-----------|  x2
A|----------------------------------------------|
D|---2-------------------0----------------------|

....and it'll be right

Order:
Part A x4
(Part B then C)x3
Part C x2
Part D x2 (followed by just the open A chord)
Part E x2 (followed by open A)
Part E x3(followed by open A again)
Part E (followed by open A)
Part F x4  (followed by an open A note and then the chord)
Part D (open A)
Part G x3
Part H
Part G x4
Part H
Part G x2


It's a little confusing, just play the part in the parentheses after each part. If the 
itself is in parentheses, play both parts inside and then repeat.
Tap to rate this tab
 
# A B C D E F G H I J K L M N O P Q R S T U V W X Y Z