Song name
# A B C D E F G H I J K L M N O P Q R S T U V W X Y Z

Todd Hunter - Heartbreak High Theme tab

Heartbreak High Theme (TV Series) - Todd Hunter

Tabbed by: lzparkma
Tuning: standard

Intro

   A5          D5             G5          A5
e|-----------|--------------|-----------|------------|
B|-----------|--------------|-----------|------------|
G|-----------|-7--7--7-7--7-|-----------|------------|
D|-7-x-x-7-7-|-7--7--7-7--7-|-5-x-x-5-5-|-7--7--7-7--|
A|-7-x-x-7-7-|-5--5--5-5--5-|-5-x-x-5-5-|-7--7--7-7--|
E|-5-x-x-5-5-|--------------|-3-x-x-3-3-|-5--5--5-5--|


3 times

e|----------------------------------------|-------------------------------------------|
B|----------------------------------------|-------------------------------------------|
G|---------------6--7--9--11b12r11-9-7-9--|---------------6b7r6-5---------------------|
D|-5-7-7-5-7--7---------------------------|-5-7-7-5-7--7----------7--4-5-5-4-5-4---7--|
A|----------------------------------------|--------------------------------------7----|
E|----------------------------------------|-------------------------------------------|

Possible pinch-harmonic on first bend of second repeat


Bridge

e|--------------------------------|
B|-15b17(r15)---------------------|
G|--------------14b15r14--12--14--|
D|--------------------------------|
A|--------------------------------|
E|--------------------------------|


e|---------------------------------------------------|
B|---------------------14-15-17--19b20r19--17-15-17--|
G|-12-14-14-12-14--14--------------------------------|
D|---------------------------------------------------|
A|---------------------------------------------------|
E|---------------------------------------------------|


e|--------------------------------------------------------------|
B|---------------------14b15-14-12------------------------------|
G|-12-14-14-12-14--14--------------14--11-12-12-11-12-11----14--|
D|-------------------------------------------------------14-----|
A|--------------------------------------------------------------|
E|--------------------------------------------------------------|
Tap to rate this tab
# A B C D E F G H I J K L M N O P Q R S T U V W X Y Z