Song name
# A B C D E F G H I J K L M N O P Q R S T U V W X Y Z

Todd Rundgren - Mercenary tab

--------------------------------------------------------------------------------
			     SONG NAME - Band Name
-------------------------------------------------------------------------------
Tabbed by:thedevil
Email:thedevil123456789@hotmail.com
An easy and awesome song off of TR's new album,Arena

Tuning:Standard
     (x4)                       Intro
e|------------------------|----------------------------------------------------------|
B|------------------------|----------------------------------------------------------|
G|---------------------5--|----------------------------------------------------------|
D|2-2--2--2-2--2-2--5--5--|----------------------------------------------------------|
A|2-2--2--2-2--2-2--5--3--|-5-4-3-0--------------------------------------------------|
E|0-0--0--0-0--0-0--3-----|----------------------------------------------------------|
                        Pre-verse Riff
e|---------------------------------------------------------------------------|
B|---------------------------------------------------------------------------|
G|---------------------------------------------------------------------------|
D|------5-4-0----------------------------------------------------------------|
A|-------------3-0-3/5-4-3-0-------------------------------------------------|
E|-000-----------------------------------------------------------------------|
                        Verse
e|-------0~~------0~~------------------------------------------------------------|
B|-------0~~------0~~------------------------------------------------------------|
G|-------0~~------0~~------------------------------------------------------------|
D|-2-2-------3-3-----------------------------------------------------------------|
A|-2-2-------3-3-----------------------------------------------------------------|
E|-0-0-------1-1--I like to add this riff every now and then(3-2-1-0)------------|
                        Chorus
e|-----------------------------------------------------------------------------|
B|-----------------------------------------------------------------------------|
G|-----------------------------------------------------------------------------|
D|-9---9-9---7-----------------------------------------------------------------|
A|-7---7-7---7---------7-------------------------------------------------------|
E|-----------5---5-6-7---7-6-5(sometimes play low E instead of high E----------|
                       Chords before Bridge
e|------------------------------------------------------------------------------|
B|------------------------------------------------------------------------------|
G|-5-------7~~------------------------------------------------------------------|
D|-5---5---7~~------------------------------------------------------------------|
A|-3---5---5~~------------------------------------------------------------------|
E|-----3------------------------------------------------------------------------|

Bridge:  (I'm not exact on this, but play around w/ the major chords around these notes)
e|-------------------------------0-------------------------------------------|
B|----------1-----3-----0------3---3--------------------------------7--------|
G|-------0------0------------2-------2------------0-----0---------7----------|
D|-0-2-3------2-------3----0--------------------2-----0----0----7------------|
A|----------------------------------------0-2-3-----2---------5--------------|
E|------------------------------------------------------3--------------------|


| /  slide up
| \  slide down
| h  hammer-on
| p  pull-off
| ~  vibrato
| +  harmonic
| x  Mute note
===============================================================================
Tap to rate this tab
# A B C D E F G H I J K L M N O P Q R S T U V W X Y Z