Song name
# A B C D E F G H I J K L M N O P Q R S T U V W X Y Z

Todd Rundgren - When The Shit Hits The Fansunset Blvd tab

    When The S*** Hits The Fan/Sunset Blvd By Todd Rundgren

Tabbed by:jdepaulis
Email:noneourbuisnass

Tuning:standard(I think)

e|-----14------14-------14------14-------12-----12-----13-------14--|
B|12-------12------12-------12------10------10-----11------12-------|
G|------------------------------------------------------------------|
D|------------------------------------------------------------------|
A|------------------------------------------------------------------|
E|------------------------------------------------------------------|

e|-14-15-12-14-10-12-8-10--12-------12-------10------10-------12--14--14-15--|
B|-----------------------------10-------10-------8--------8------------------|
G|---------------------------------------------------------------------------|
D|---------------------------------------------------------------------------|
A|---------------------------------------------------------------------------|
E|---------------------------------------------------------------------------|

e|-14--12--14--17V--16--14--12--14/19T20(TRILL)-18-16-14-16/21T22-20-18-16--|
B|--------------------------------------------------------------------------|
G|--------------------------------------------------------------------------|
D|--------------------------------------------------------------------------|
A|--------------------------------------------------------------------------|
E|--------------------------------------------------------------------------|

e|-18/23/24V----------------------------------------------------------------------------|
B|--------------------------------------------------------------------------------------|
G|--------------------------------------------------------------------------------------|
D|--------------------------------------------------------------------------------------|
A|--------------------------------------------------------------------------------------|
E|--------------------------------------------------------------------------------------|

| /  slide up
| \  slide down
| h  hammer-on
| p  pull-off
| ~  vibrato
| +  harmonic
| x  Mute note
===============================================================================
Tap to rate this tab
# A B C D E F G H I J K L M N O P Q R S T U V W X Y Z