Song name
# A B C D E F G H I J K L M N O P Q R S T U V W X Y Z

Todd Sweeney - Johanna tab

xCodyKinsx
Tuning: E Standard
  
 I Feel You Johanna..   I was half convinced I'd waken..

|--------------------|--------------------|-------------------|
|---4-3--------------|--------------------|-------------------|
|---------3-5--------|--------------------|-------------------|
|-5-----5-------6--8-|---1-1---1---1/3-5--|---1-1---1---1/4-5-|
|-------------6------|-3-----3---3--------|-3-----3---3-------|
|--------------------|--------------------|-------------------|

                    ..Johanna..

|--------------------|-------|
|--------------------|-------|
|--------------------|-----5-|
|---1-1---1---1/8-10-|-5-8---|
|-3-----3---3--------|-------|
|--------------------|-------|


I'll Steal you Johanna..  Do they think that walls could hide you?..

|-------------------|-------------------|-------------------|
|---5-4-------------|-------------------|-------------------|
|---------3-5---6-8-|-------------------|-------------------|
|-5-----5-----6-----|---1-1---1---1/3-5-|---1-1---1---1/4-5-|
|-------------------|-3-----3---3-------|-3-----3---3-------|
|-------------------|-------------------|-------------------|


               ...Buried sweetly in your yellow hair... 

|-------------------|---------------------|
|-------------------|---4-4-3-------------|
|-------------------|----------5-3-5-3-5--|
|---1-1---1---1/3-5-|---------------------|
|-3-----3---3-------|-6-------------------|
|-------------------|---------------------|



I Feel You Johanna

|-------------|--------------|--------------------|-------------------|
|---4-3-------|--------------|---4-4-3------------|-------------------|
|---------3-5-|--------------|----------5-3-5-3-5-|---5-5-3-3-1-3-1-3-|
|-5-----5-----|---3-5----3-5-|--------------------|-------------------|
|-------------|-6------6-----|-6------------------|-6-----------------|
|-------------|--------------|--------------------|-------------------|




Sorry for any mistakes.


Tap to rate this tab
# A B C D E F G H I J K L M N O P Q R S T U V W X Y Z