Guitaretab - guitar tabs
Song name
# A B C D E F G H I J K L M N O P Q R S T U V W X Y Z

Todd Sweeney - Roxy Roller tab

Okay this is my tab for Sweeney Todd's version of Roxy Roller, which as far as I know is 
same as Nick Gilder's version. It's really easy but I'm not 100% sure about the solo. 
give me some feedback on it.
Sorry if the words don't always line up with the tab, I tried my best.


tuning: standard  (e b g d a E)

p.m.  	palm mute
/	slide up
\	slide down
x	mute (with fret hand)
h	hammer on
p	pull off
b	bend


e|------------------------------------------------------------------|
b|------------------------------------------------------------------|
g|--------9---9--9-9----9----9--9-9----9----9--9-9----9-----9--9-9--|
d|--------9---9--9-9----9----9--9-9----9----9--9-9----9-----9--9-9--|
a|--------7-x-7--7-7----7--x-7--7-7----7--x-7--7-7----7--x--7--7-7--|
E|-12\-0--------------0--------------0--------------0---------------|


|------------------------------------------------------------------------|
|------------------------------------------------------------------------|
|-------------------------------------------9----9---9-9---9----9---9-9--|
|-------------------------------------------9----9---9-9---9----9---9-9--|
|-------------------------------------------7--x-7---7-7---7--x-7---7-7--|
|-0--0-0--0-0--0-0--0-0--0-0--0-0--0-0--0-0------------------------------|
   p.m......................................................
Foxy from the Roxy might turn some heads tonight

|-------------------------------------------------------------------------|
|-------------------------------------------------------------------------|
|------------------------------------------7----6------4------------------|
|------------------------------------------7----6------4------------------|
|------------------------------------------5----4------2------------------|
|-0--0-0--0-0---0--0-0--0-0--0-0--0-0--0----------------------------------|
   p.m......................................................
Flashlight dream, peaches and cream delight            Roxy Roller

|--------------------------------------|
|--------------------------------------|
|------9----9---9-9----9----9---9-9----|
|------9----9---9-9----9----9---9-9----|
|------7--x-7---7-7----7--x-7---7-7----|
|---0----------------0-----------------|


|------------------------------------------------------------------------|
|------------------------------------------------------------------------|
|-------------------------------------------9----9---9-9---9----9---9-9--|
|-------------------------------------------9----9---9-9---9----9---9-9--|
|-------------------------------------------7--x-7---7-7---7--x-7---7-7--|
|-0--0-0--0-0--0-0--0-0--0-0--0-0--0-0--0-0------------------------------|
   p.m......................................................
Five-bob job she gets bubble gum on her knees

|-------------------------------------------------------------------------|
|-------------------------------------------------------------------------|
|------------------------------------------7----6------4------------------|
|------------------------------------------7----6------4------------------|
|------------------------------------------5----4------2------------------|
|-0--0-0--0-0---0--0-0--0-0--0-0--0-0--0----------------------------------|
   p.m......................................................
Down between the seats sometimes she'll pass you the keys     Roxy Roller

|-----------------------------------------|
|-----------------------------------------|
|------9----9---9--9-----9-----9---9-9----|
|------9----9---9--9-----9-----9---9-9----|
|------7--x-7---7--7-----7--x-7---7-7-----|
|---0------------------0------------------|

|----------------------|------------------------------------------|
|----------------------|------------------------------------------|
|---7----6-----4-------|------9----9---9-9-------9----9---9--9----|
|---7----6-----4-------|------9----9---9-9-------9----9---9--9----|
|---5----4-----2-------|------7--x-7---7-7-------7--x-7---7--7----|
|----------------------|---0------------------0-------------------|
oooooooooh        Roxy Roller


|-------------------------------------|----------------------------------|
|-------------------------------------|----------------------------------|
|-------------------------------------|----------------------------------|
|-6/7-7-7--6/7-7-7--6/7-7-7---7--5----|-6/7-7-7--6/7-7-7--6/7-7-7---7--5-|
|-6/7-7-7--6/7-7-7--6/7-7-7---7--5----|-6/7-7-7--6/7-7-7--6/7-7-7---7--5-|
|-4/5-5-5--4/5-5-5--4/5-5-5---5--3----|-4/5-5-5--4/5-5-5--4/5-5-5---5--3-|
                             Roxy!                                Roller!
[ Tab from: http://www.guitaretab.com/t/todd-sweeney/57792.html ]
|----------------------------------|-------------------------------------|
|----------------------------------|-------------------------------------|
|----------------------------------|------9----9--9-9----9----9---9-9----|
|-6/7-7-7--6/7-7-7--6/7-7-7--7--5--|------9----9--9-9----9----9---9-9----|
|-6/7-7-7--6/7-7-7--6/7-7-7--7--5--|------7--x-7--7-7----7--x-7---7-7----|
|-4/5-5-5--4/5-5-5--4/5-5-5--5--3--|-12\0--------------0-----------------|
                             Roxy!


|------------------------------------------------------------------------|
|------------------------------------------------------------------------|
|-------------------------------------------9----9---9-9---9----9---9-9--|
|-------------------------------------------9----9---9-9---9----9---9-9--|
|-------------------------------------------7--x-7---7-7---7--x-7---7-7--|
|-0--0-0--0-0--0-0--0-0--0-0--0-0--0-0--0-0------------------------------|
   p.m......................................................
Her daddy le commissioner took far more than his share

|-------------------------------------------------------------------------|
|-------------------------------------------------------------------------|
|------------------------------------------7----6------4------------------|
|------------------------------------------7----6------4------------------|
|------------------------------------------5----4------2------------------|
|-0--0-0--0-0---0--0-0--0-0--0-0--0-0--0----------------------------------|
   p.m......................................................
So Roxy joined the syndicate knowing it wasn't fair       Roxy Roller

|-----------------------------------------|
|-----------------------------------------|
|------9----9---9--9-----9-----9---9-9----|
|------9----9---9--9-----9-----9---9-9----|
|------7--x-7---7--7-----7--x-7---7-7-----|
|---0------------------0------------------|


|---------------------|----------------------------------------|
|---------------------|----------------------------------------|
|---7----6-----4------|------9----9---9-9------9----9---9-9----|
|---7----6-----4------|------9----9---9-9------9----9---9-9----|
|---5----4-----2------|------7--x-7---7-7------7--x-7---7-7----|
|---------------------|---0------------------0-----------------|
oooooooooh        Roxy Roller

Big solo! I know it's played on two guitars with a little overlap but this sounds just 
good
|-----------------------------------|--------------------------|
|-----------------------------------|--------------------------|
|-----------9------------9--9b---9--|--------------------------|
|------9h11---------9h11------------|-------9--9---7------9----|
|-7h9-----------7h9-----------------|--9h11----------9h11------|
|-----------------------------------|--------------------------|


|-----------------------------------|--------------------------|
|-----------------------------------|--------------------------|
|-----------9------------9--9b---9--|--------------------------|
|------9h11---------9h11------------|-------9--9---7------9----|
|-7h9-----------7h9-----------------|--9h11----------9h11------|
|-----------------------------------|--------------------------|


|-------------------------------------|----------------------------------|
|-------------------------------------|----------------------------------|
|-------------------------------------|----------------------------------|
|-6/7-7-7--6/7-7-7--6/7-7-7---7--5----|-6/7-7-7--6/7-7-7--6/7-7-7---7--5-|
|-6/7-7-7--6/7-7-7--6/7-7-7---7--5----|-6/7-7-7--6/7-7-7--6/7-7-7---7--5-|
|-4/5-5-5--4/5-5-5--4/5-5-5---5--3----|-4/5-5-5--4/5-5-5--4/5-5-5---5--3-|
                             Roxy!                                Roller!

|----------------------------------|-------------------------------------|
|----------------------------------|-------------------------------------|
|----------------------------------|------9----9--9-9----9----9---9-9----|
|-6/7-7-7--6/7-7-7--6/7-7-7--7--5--|------9----9--9-9----9----9---9-9----|
|-6/7-7-7--6/7-7-7--6/7-7-7--7--5--|------7--x-7--7-7----7--x-7---7-7----|
|-4/5-5-5--4/5-5-5--4/5-5-5--5--3--|-12\0--------------0-----------------|
                             Roxy!


|---------------------|----------------------------------------|
|---------------------|----------------------------------------|
|---7----6-----4------|------9----9---9-9------9----9---9-9----|
|---7----6-----4------|------9----9---9-9------9----9---9-9----|
|---5----4-----2------|------7--x-7---7-7------7--x-7---7-7----|
|---------------------|---0------------------0-----------------|
oooooooooh        Roxy Roller


|---------------------|----------------------------------------|
|---------------------|----------------------------------------|
|---7----6-----4------|------9----9---9-9------9----9---9-9----|
|---7----6-----4------|------9----9---9-9------9----9---9-9----|
|---5----4-----2------|------7--x-7---7-7------7--x-7---7-7----|
|---------------------|---0------------------0-----------------|
oooooooooh        Roxy Roller

|----------------------|
|----------------------|
|---7----6-----4-------|
|---7----6-----4-------|
|---5----4-----2-------|
|----------------------|
oooooooooooh       Roxy.

There you have it. At the very end I like to do a slow dive with my whammy bar, but it's 
choice. This took me all afternoon but I think it's better than the other version on 
site...please rate it.
Related for Roxy Roller tab
Advertisement will be closed in 10 seconds