Song name
# A B C D E F G H I J K L M N O P Q R S T U V W X Y Z

Toe - Goodbye tab

Goodbye by Toe
from the album "New Sentimentality"
http://www.toe.st/

Tuning: Standard (E A D G B E)
Capo 2

Mute the E on the 4th string.

0:00 to 0:27

|--------|
|---10---|
|--------|
|-0------|
|--------|
|--------|

|-----------------------------9-|
|---7---5---7---10--7---0---7---|
|-------------------------------|
|-0---0---0---0---0---0---0-----|
|-------------------------------|
|-------------------------------|

3rd time:

|-----------------------------9-|
|---7---5---7---10--7---0---0---|
|-------------------------------|
|-0---0---0---0---0---0---0-----|
|-------------------------------|
|-------------------------------|

at 0:27:

|-----------------------------9-|
|---7---5---7---10--7---5---7---|
|-------------------------------|
|-0---0---0---0---0---0---0-----|
|-------------------------------|
|-------------------------------|
Tap to rate this tab
 
# A B C D E F G H I J K L M N O P Q R S T U V W X Y Z