Toe - Two Moons tab

Two Moons by Toe
from the album "For Long Tomorrow"
http://www.toe.st/

Tuning: Double Drop D (D A D G B D)
Capo 2

I'm not sure they play it this way, but it's the most accurate and easiest to play way it.

Intro: 


|-----------------------------|
|-0--------------3------2-0---|
|------------1--------------2-|
|---4-2--------2--------------|
|-----------------------------|
|-----------------------------|

Main arpeggio:

|---------------------------------|
|---------5p2-------2-------------|
|-----2-------2-------4-----4h2---|
|---2---2-------2-------2-------2-|
|---------------------------------|
|-0---------------0-------0-------| x2

|---------------------------------|
|---------5p2-------2-------------|
|-----2-------2-------4-----4h2---|
|---2---2-------2-------2-------2-|
|---------------------------------|
|-4---------------4-------2-------|
Tap to rate this tab
 
# A B C D E F G H I J K L M N O P Q R S T U V W X Y Z