Song name
# A B C D E F G H I J K L M N O P Q R S T U V W X Y Z

Toe - Two Moons tab

song title: two moons
band/artist: toe

tabbed by: himynameischan
email: himynameischan@yahoo.com

rox, para sayo ito

tuning: D# A# F# B G# E

*note - not sure what to call this kind of tuning i just read this tuning in some 
comment in youtube :)
feel free to message me if you know what kind of tuning this is

*please rate*

intro

D#|--------|-------1-|-0-----|
A#|--3-----|--0------|---3-1-|
F#|----2-0-|----0----|-------|
B |--------|---------|-------|
G#|--------|---------|-------|
E |--------|---------|-------|

D#|------------3p0-----|--------------------| x2
A#|-------1--------1---|-----5p3------3p1---|
F#|----0----0--------0-|---------0--------0-|
B |--------------------|--------------------|
G#|--------------------|--------------------|
E |--0-----------------|--0---------0-------|

D#|------------3p0-----|--------------------|
A#|-------1--------1---|-----5p3------3p1---|
F#|----0----0--------0-|---------0--------0-|
B |--------------------|--------------------|
G#|--0-----------------|--0-----------------|
E |--------------------|------------2-------|

D#|------------3p0-----|--------------------|
A#|-------1--------1---|-----5p3------3p1---|
F#|----0----0--------0-|---------0--------0-|
B |--------------------|--------------------|
G#|--------------------|--------------------|
E |--0-----------------|--0---------0-------|


i'll update this one if i get to finish the whole song thanks! :)
Tap to rate this tab
 
# A B C D E F G H I J K L M N O P Q R S T U V W X Y Z