Song name
# A B C D E F G H I J K L M N O P Q R S T U V W X Y Z

Toe - Interlude 2 tab

Song Title: Interlude 2
Band/Artist: toe
Album: RGBDVD
Tuning: Standard

tabbed by: himynameischan
email: himynameischan@yahoo.com

 /   slide up
 \   slide down
 h   hammer-on
 p   pull-off
 ~   vibrato
 .   short note  

e|-------------------------|---------------------------------|
B|-------------------------|---------------------------------|
G|--8~---------------------|--8~-----8--8~-----8.------------|
D|------6-9---9--11--9--8--|------6--------------------------|
A|--7~--7----11---------9--|--7~--7--------------------------|
E|-------------------------|------------7~--7----------------|

e|---------------------------------|-------------------------|
B|---------------------------------|-------------------4-----|
G|--8~-----8-----------------------|--8~-----8------8--------|
D|------6-----9--11--8~--8h9p8---9-|------6-----4~-----------|
A|--7~--7-----11-----9~--------9---|--7~--7-----2~-----------|
E|---------------------------------|-------------------------|

e|----------4------------4-----|-----------------------4------------|
B|-------7----7--4---7------7--|---------------7-(7)-------7-----9--|
G|--8~-------------------------|------------------------------8-----|
D|-----------------------------|------------------------------------|
A|--7~-------------------------|--------0h7/9--------------7--------|
E|-------------------7---------|--4---------------------------------|

e|------------------------------------|------------------------------|
B|------------------------------------|---------------------------4--|
G|--8~--------------------------8-----|--8~-----9--------------8-----|
D|------6-9---9--11-----8-8h98--------|------6-----4~-------9--------|
A|--7~--7----11---------9----------9--|--7~--7-----2~---11-----------|
E|------------------------------------|------------------------------|

e|--------------------------------|----------------------------------|
B|--------------------------------|----------------------------------|
G|--8~-----8-----------------9\8--|--8~-----8---------(8)------------|
D|------6--9----9---8--9/11-------|------------4~--------------------|
A|--7~--7-----11----9-------------|--7~--------2~--------------------|
E|--------------------------------|------9---------------------------|

e|--------------------------------|
B|--------7---9----------9----7---|
G|-----8--------------------------|
D|--------------------------------|
A|--7-----------------------------|
E|--------------------------------|
Tap to rate this tab
 
# A B C D E F G H I J K L M N O P Q R S T U V W X Y Z