Song name
# A B C D E F G H I J K L M N O P Q R S T U V W X Y Z

Toe - Metronome tab

The recording of this song plays one guitar on the left speaker and the other guitar on
the right speaker so it's easy to play along to and get the timing down if you listen to it.
This tab goes about until the drums enter the song.

Guitar I

E|-----------------|
B|--------------3--|
G|-----4--4--------|
D|--2--------2-----|    x20
A|-----------------|
E|-----------------|

E|--------------------|
B|--------------3-----|
G|-----4--4-----------|
D|--2--------2-----0--|
A|--------------------|
E|--------------------|


E|--------------------------------------------------------------------------------|
B|--------------3--------------3--------------3--------------3--------------3-----|
G|-----4--4-----------4--4-----------4--4-----------4--4-----------4--4-----------|
D|-----------------------------------------------------------------------------0--|
A|--3--------3-----3--------3-----3--------3-----3--------3-----3--------3--------|
E|--------------------------------------------------------------------------------|

E|---------------------------------------------------------------------------------|
B|--------------3--------------3--------------3--------------3--------------3------|
G|-----4--4-----------4--4-----------4--4-----------4--4-----------4--4------------|   *rest*
D|--2--------2-----2--------2-----2--------2-----2--------2-----2--------2---------|
A|---------------------------------------------------------------------------------|
E|---------------------------------------------------------------------------------|

E|-----------------------------------------------------------------------------------|
B|--------------3--------------3--------------3--------------3--------------3--------|
G|-----4--4-----------4--4-----------4--4-----------4--4-----------4--4--------------|
D|--2--------2-----2--------2-----2--------2-----2--------2-----2--------2-----0-----|
A|-----------------------------------------------------------------------------------|
E|-----------------------------------------------------------------------------------|

E|--------------------------------------------------------------------------------|
B|--------------3--------------3--------------3--------------3--------------3-----|
G|-----4--4-----------4--4-----------4--4-----------4--4-----------4--4-----------|
D|-----------------------------------------------------------------------------0--|
A|--3--------3-----3--------3-----3--------3-----3--------3-----3--------3--------|
E|--------------------------------------------------------------------------------|

E|-----------------------------------------------------------------------------------|
B|--------------3--------------3--------------3--------------3--------------3--------|
G|-----4--4-----------4--4-----------4--4-----------4--4-----------4--4--------------|
D|--2--------2-----2--------2-----2--------2-----2--------2-----2--------2-----0-----|
A|-----------------------------------------------------------------------------------|
E|-----------------------------------------------------------------------------------|


E|----------------------------------------------------------------------------|
B|--------------3--------------3--------3--------------3--------------3--3/5--|
G|-----4--4-----------4--4-----------4--------4--4-----------4--4-------------|
D|----------------------------------------------------------------------------|
A|--3--------3-----3--------3-----3--------0--------0-----0--------0----------|
E|----------------------------------------------------------------------------|

Guitar II
This is played for the majority of the intro until after the rest

E|--------------------5-----|
B|--------7--------------7--|
G|-----7--------7-----------|
D|--5--------5-----5--------|
A|--------------------------|
E|--------------------------|


After the rest


(/) Slide Up  (\) Slide Down  (h) Hammer On  (p) Pull Off  (b) Bend (r) Release (v) Vibrato


E|--------------------------------7----------------7---------10----7--|
B|--8/10--8--7-----8-----8/10----8------------------------------------|
G|------------------------------5---------------5-----9---------------|
D|--------------9-----9--------9-------------9------------------------|
A|--------------------------------------------------------------------|
E|--------------------------------------------------------------------|



E|-------------------------------------------------------------------|
B|---------------------------------------------------5---------------|
G|------------------------------------------------5------------------|
D|-------9-----9--5-----5-------9-----9--5-----5-------------9-----9-|
A|--5/7-----7--------7-----5/7-----7--------7-----------5/7-----7----|
E|-------------------------------------------------------------------|

--------------------------------------|
--------------------------------------|
------------------------------5--7/9--|
-5-----5-------9-----9--5-------------|
----7-----5/7-----7--------7----------|
--------------------------------------|

This song isn't too hard it's just the timing on a couple of parts is tricky. Hope this
helps. I'll try to tab the rest of this sometime.
Tap to rate this tab
 
# A B C D E F G H I J K L M N O P Q R S T U V W X Y Z