Song name
# A B C D E F G H I J K L M N O P Q R S T U V W X Y Z

Toe - Two Moons tab

Tuning: E Ab B F# B Eb


|----------3p0------------------------------3p0-----------------------|
|------0-------0-----4\2-----2p0--------0-------0-----4\2-----2p0-----|
|--------0-------0-------0-------0--------0-------0-------0-------0---|
|----0--------------------------------0-------------------------------|
|---------------------------------------------------------------------|
|--0---------------0-------0--------0---------------0-------0---------|

----------3p0----------------------|
------0-------0-----4\2-----2p0----|
--------0-------0-------0-------0--|
----0------------------------------|
-----------------------------------|
--4---------------4------\2--------|

|------3p0-----------5/7p0-----7-------------0------|
|----------2p0-----------------0-0---------0---0----|
|------------------0---------------0-----0-------0--|
|----0-----------0-----------0-------0--------------|
|---------------------------------------------------|
|--0-----------2-----------4-----------7------------|

|------3p0-----------5/7p0-----7---------------------(7)--|
|----------2p0-----------------0-0---------------(12)-----|
|------------------0---------------0-------0-(12)---------|
|----0-----------0-----------0-------0---0----------------|
|---------------------------------------------------------|
|--0-----------2-----------4-----------7------------------|
Tap to rate this tab
# A B C D E F G H I J K L M N O P Q R S T U V W X Y Z