Song name
# A B C D E F G H I J K L M N O P Q R S T U V W X Y Z

Toe - You Go tab

e|-8p6p5p6h8h----------------------------------------------------|
b|----------------------------------------------------5-6----10--|
g|-------------------------------------------------------7s9-----|
d|---------------------------------------------------------------|
a|---------------------------------------------------------------|
e|---------------------------------------------------------------|
REPEAT small riff after that goes like v



silent riff at 0:44 is something like

e|-8-8-8p5-5h6p5h6h-----<(something like this)-------------------|
b|---------------------------------------------------------------|
g|---------------------------------------------------------------|
d|---------------------------------------------------------------|
a|---------------------------------------------------------------|
e|---------------------------------------------------------------|

chords where they faintly speak is something like at 2:15
e| -------------------|
b|--10-------10-------|
g|--12--then 10-------|
d|--12-------10-------|
a|--------------------|
e|--------------------|

the rest of the song kind of repeats and I don't know the crazy parts.

Could be flawed, but I did it quick by ear and its the only one probably available.
Tap to rate this tab
 
# A B C D E F G H I J K L M N O P Q R S T U V W X Y Z