Song name
# A B C D E F G H I J K L M N O P Q R S T U V W X Y Z

Toh Kay - Would You Be Impressed tab

(/) Slide Up  (\) Slide Down  (h) Hammer On  (p) Pull Off  (b) Bend (r) Release (v) Vibrato


Would You Be Impressed? (Intro) by Toh Kay

Capo 1 (frets relative to capo)


E|-----7-----|
B|-----0-----|
G|-----7-----|
D|-----6-----|
A|-----7-----|
E|-----0-----|



E|---7-------7-------7-------7-------7-------7-------7-------7-----|
B|-------0-------0-------0-------0-------0-------0-------0-------0-|
G|-----7-------7-------7-------7-------7-------7-------7-------7---|
D|-----------------------------------------------------------------|
A|-----------------------------------------------------------------|
E|-0-------0-------0-------0-------0-------0-------0-------0-------|



E|---8-------8-------8-------8-------8-------8-------8-------8-----|
B|-------0-------0-------0-------0-------0-------0-------0-------0-|
G|-----8-------8-------8-------8-------8-------8-------8-------8---|
D|-----------------------------------------------------------------|
A|-----------------------------------------------------------------|
E|-0-------0-------0-------0-------0-------0-------0-------0-------|



E|---7-------7-------7-------7-------7-------7-------7-------7-----|
B|-------0-------0-------0-------0-------0-------0-------0-------0-|
G|-----7-------7-------7-------7-------7-------7-------7-------7---|
D|-----------------------------------------------------------------|
A|-----------------------------------------------------------------|
E|-0-------0-------0-------0-------0-------0-------0-------0-------|



E|---6-------6-------6-------6-------6-------6-------6-------6-----|
B|-------0-------0-------0-------0-------0-------0-------0-------0-|
G|-----6-------6-------6-------6-------6-------6-------6-------6---|
D|-----------------------------------------------------------------|
A|-----------------------------------------------------------------|
E|-0-------0-------0-------0-------0-------0-------0-------0-------|



E|-5--------5-------7---7------------------5-----5-5-|
B|------5-----------------5p0---0-------5------5---5-|
G|----5---------5-----7-------0--------------5-----5-|
D|------------7-----------------------7------------7-|
A|----------------7-----------------7--------------7-|
E|-5------------------------------5----------------5-|



E|-3--------3-------5---5p0----------------5-----5-5-|
B|------3-------3-----------3---3-------5------5---5-|
G|----4-------4-------4-------4--------------5-----5-|
D|------------------------------------7------------7-|
A|----------------------------------7--------------7-|
E|-3--------------3---------------5----------------5-|



E|-5--------5-------7---7p0----------------5-----5-5-|
B|------6-------6-----6-----5---5-------5------5---5-|
G|----7-------7---------------5--------------5-----5-|
D|------------------------------------7------------7-|
A|-5--------------5-----------------7--------------7-|
E|--------------------------------5----------------5-|



E|---7-------7-------7-------7------5---5-5-5-5-|
B|-------0-------0-------0----------5---5-5-5-5-|
G|-----7-------7-------7-------7----5---5-5-5-5-|
D|-------------------------------7--7---7-7-7-7-|
A|-7---------------7-------------7--7---7-7-7-7-|
E|---------7---------------7-----5--5---5-5-5-5-|
Tap to rate this tab
 
# A B C D E F G H I J K L M N O P Q R S T U V W X Y Z