Song name
# A B C D E F G H I J K L M N O P Q R S T U V W X Y Z

Toh Kay - If Only For Memories tab

If Only for Memories - Toh Kay
Tabbed by Brixton Parker
corrections or questions -> snoopy20704@gmail.com
You can find the verse chords here:
http://tabs.ultimate-guitar.com/t/toh_kay/if_only_for_memories_crd.htm

Capo on 2
Play with heavy muting

INTRO:

E|-------------------|---------------0---|-------------------|-3-1-0---------------|
B|-3-1-3-3-1-1---1-1-|-3-1-3-3-1-1-----1-|-3-1-3-3-1-1---1-1-|-------3-1-0-1-3-5-3-|
G|-------------0-----|-------------0-----|-------------0-----|---------------------|
D|-------------------|-------------------|-------------------|---------------------|
A|-------------------|-------------------|-------------------|---------------------|
E|-------------------|-------------------|-------------------|---------------------|

E|-------0-1-0---0-------------0-1-0---0---|
B|-0-1-3-------3---3-1---0-1-3-------3---1-|
G|-----------------------------------------|
D|-----------------------------------------| x2
A|-----------------------------------------|
E|-----------------------------------------|

E|-1/3-3-3-3-3-3/5-3-3-0---3-0-3-0-3-3-3/5-3-0-|
B|---------------------------------------------|
G|---------------------------------------------|
D|---------------------------------------------|
A|---------------------------------------------|
E|---------------------------------------------|

E|-------0-1-0---0-------------0-1-0---0---|
B|-0-1-3-------3---3-1---0-1-3-------3---1-|
G|-----------------------------------------|
D|-----------------------------------------|
A|-----------------------------------------|
E|-----------------------------------------|

  Let notes ring in this section
E|-------------------------------|---0h1-0---0---------1---0---0---0---1---------------------|
B|-1-1p0-1-3---3-1-1---1-0-1-1-1-|-1-------3-----3-1-1---1---1---1---1---1-3-3-3-3-3-3-1-1-0-|
G|-------------------------------|-----------------------------------------------------------|
D|-------------------------------|-----------------------------------------------------------|
A|-------------------------------|-----------------------------------------------------------|
E|-------------------------------|-----------------------------------------------------------|

E|-----1-0---0-------------0-1-0---0---|-------0-1-0---0-------------0-1-0---0---|
B|-3-1-----3---3-1---0-1-3-------3---1-|-0-1-3-------3---3-1---0-1-3-------3---1-|
G|-------------------------------------|-----------------------------------------|
D|-------------------------------------|-----------------------------------------|
A|-------------------------------------|-----------------------------------------|
E|-------------------------------------|-----------------------------------------|

---

POST CHORUS 1:

E|-0-1-0---0-------------0-1-0---0---|-------0-1-0---0-------------0-1-0---0---|
B|-------3---3-1---0-1-3-------3---1-|-0-1-3-------3---3-1---0-1-3-------3---1-|
G|-----------------------------------|-----------------------------------------|
D|-----------------------------------|-----------------------------------------|
A|-----------------------------------|-----------------------------------------|
E|-----------------------------------|-----------------------------------------|

---

POST CHORUS 2:

E|-------------------|---------------0---|-------------------|-3-1-0---------------|
B|-3-1-3-3-1-1---1-1-|-3-1-3-3-1-1-----1-|-3-1-3-3-1-1---1-1-|-------3-1-0-1-3-5-3-|
G|-------------0-----|-------------0-----|-------------0-----|---------------------|
D|-------------------|-------------------|-------------------|---------------------|
A|-------------------|-------------------|-------------------|---------------------|
E|-------------------|-------------------|-------------------|---------------------|

E|-------0-1-0---0-------------0-1-0---0---|
B|-0-1-3-------3---3-1---0-1-3-------3---1-|
G|-----------------------------------------|
D|-----------------------------------------| x2
A|-----------------------------------------|
E|-----------------------------------------|

E|---------|---------------------------------|-----------------------------|
B|-1-1p0-1-|-----1-------1-------0---1-0-----|-----1-------1-------1-0-----|
G|---------|---2-------0-------0---------2-0-|---2-------0-------------2-0-|
D|---------|-3-------2-------2---------------|-3-------2-------2-----------|
A|---------|---------------------------------|-----------------------------|
E|---------|---------------------------------|-----------------------------|

   Strum Strum Strum Strum   Strum Strum  x16
E|-1-----0-----0-----0-----|-1-----0-----|-0-|
B|-1-----1-----0-----1-----|-1-----1-----|-0-|
G|-2-----0-----1-----2-----|-2-----0-----|-1-|
D|-3-----2-----2-----2-----|-3-----2-----|-2-|
A|-3-----3-----2-----0-----|-3-----3-----|-2-|
E|-1-----0-----0-----0-----|-1-----0-----|-0-|

---

OUTRO:

E|-0-1-0---0-------------0-1-0---0---|-------0-1-0---0-------------0-1-0---0---|
B|-------3---3-1---0-1-3-------3---1-|-0-1-3-------3---3-1---0-1-3-------3---1-|
G|-----------------------------------|-----------------------------------------|
D|-----------------------------------|-----------------------------------------|
A|-----------------------------------|-----------------------------------------|
E|-----------------------------------|-----------------------------------------|

E|-0-3-3-3-3-3-3/5-3-3-0---3-0-3-0-3-3-3/5-3-0-|
B|---------------------------------------------|
G|---------------------------------------------|
D|---------------------------------------------|
A|---------------------------------------------|
E|---------------------------------------------|

E|-------0-1-0---0-------------0-1-0---0---|
B|-0-1-3-------3---3-1---0-1-3-------3---1-|
G|-----------------------------------------|
D|-----------------------------------------|
A|-----------------------------------------|
E|-----------------------------------------|

  Let notes ring in this section
E|-------------------------------|---0h1-0---0---------1---0---0---0-0---1---|
B|-1-1p0-1-3---3-1-1---1-0-1-1-1-|-1-------3-----3-1-1---1---1---1-----1---1-|
G|-------------------------------|-------------------------------------------|
D|-------------------------------|-------------------------------------------|
A|-------------------------------|-------------------------------------------|
E|-------------------------------|-------------------------------------------|

E|---------------------------------1-1-1-1-1-1-0-0-----------------|
B|-3-3-3-3-3-3-1-1-0-0-0-0-0-0-0-0-----------------3-3-3-3-3-3-3-3-|
G|-----------------------------------------------------------------|
D|-----------------------------------------------------------------|
A|-----------------------------------------------------------------|
E|-----------------------------------------------------------------|

E|-3-3-3-3-1-1-1-1-0-0-0-0----------------0-|
B|-------------------------3-3-3-3-5/-----1-|
G|----------------------------------------0-|
D|----------------------------------------2-|
A|----------------------------------------3-|
E|----------------------------------------0-|

---
Tap to rate this tab
# A B C D E F G H I J K L M N O P Q R S T U V W X Y Z