Song name
# A B C D E F G H I J K L M N O P Q R S T U V W X Y Z

Toh Kay - Sick And Sad tab

Notes: This is a tab for Sick and Sad off of Toh Kay’s Streetlight Lullabies. This is my
first tab, but I think I got it very close to how Tomas plays it. Here’s a few tips
that may help. This is a finger picking song so don’t use a pick. Play the individual
notes with your thumb, index and middle fingers. For chords always strum down and then quickly
back up using your index finger. Listen to the song to get the rhythm. Once you learn
the finger picking pattern, apply all the tabbed out sections to lyrics with the chords
below. Be sure to check out my cover on youtube! Feel free to email me if you have any 
questions at stefa.ellenberger001@gmail.com http://www.youtube.com/watch?v=YnEM3gwXYT8

Standard Tuning
Capo on 5th fret

Capo on 5th fret
Intro:

e|----0-0------0-0--1-1--1-----0-------0-0-----0-0------3-3-------3-3-|
B|----1-1------1-1--1-1----1-----------1-1-----1-1------3-3-------3-3-|
G|----2-2------2-2--2-2------2---------2-2-----2-2------0-0-------0-0-|
D|----0-0—0h2--0-0--3-3----------------0-0-0h2-0-0------0-0----0--0-0-|
A|-3--3-3------3-3--3-3------------3---3-3-----3-3------2-2--2----2-2-|
E|------------------1-1------------------------------3--3-3-------3-3-|

e|-----0—3p0------1-1--1-----0----0-0-----0-0------3-3------3-3-------|
B|-----1-----1----1-1----1--------1-1-----1-1------3-3------3-3-------|
G|-----2-------0--2-2------2------2-2-----2-2------0-0------0-0-------|
D|-----0----------3-3-------------0-0-0h2-0-0------0-0----0-0-0-------|
A|--3--3----------3-3----------3--3-3-----3-3------2-2--2---2-2-------|
E|----------------1-1---------------------------3--3-3------3-3-------|

e|--1-1--1-----0-----0-0-----0-0--------------------------------------|
B|--1-1----1---------1-1-----1-1--------------------------------------|
G|--2-2------2-------2-2-----2-2--------------------------------------|
D|--3-3--------------0-0—0h2-0-0--------------------------------------|
A|--3-3-----------3--3-3-----3-3--------------------------------------|
E|--1-1---------------------------------------------------------------|

Chorus:

e|----0-0------0-0--1-1--1-----0-------0-0-----0-0------3-3-------3-3-|
B|----1-1------1-1--1-1----1-----------1-1-----1-1------3-3-------3-3-|
G|----2-2------2-2--2-2------2---------2-2-----2-2------0-0-------0-0-|
D|----0-0—0h2--0-0--3-3----------------0-0-0h2-0-0------0-0----0--0-0-|
A|-3--3-3------3-3--3-3------------3---3-3-----3-3------2-2--2----2-2-|
E|------------------1-1------------------------------3--3-3-------3-3-|

e|----0-0------0-0--1-1--1-----0-------0-0-----0-0------3-3-------3-3-|
B|----1-1------1-1--1-1----1-----------1-1-----1-1------3-3-------3-3-|
G|----2-2------2-2--2-2------2---------2-2-----2-2------0-0-------0-0-|
D|----0-0—0h2--0-0--3-3----------------0-0-0h2-0-0------0-0----0--0-0-|
A|-3--3-3------3-3--3-3------------3---3-3-----3-3------2-2--2----2-2-|
E|------------------1-1------------------------------3--3-3-------3-3-|

e|--1-1--1-----0-----0-0-----0-0--------------------------------------|
B|--1-1----1---------1-1-----1-1--------------------------------------|
G|--2-2------2-------2-2-----2-2--------------------------------------|
D|--3-3--------------0-0—0h2-0-0--------------------------------------|
A|--3-3-----------3--3-3-----3-3--------------------------------------|
E|--1-1---------------------------------------------------------------|

Verse/Humming Part (x2):

e|-----0-0-----0-0----0-----0-0----0-----0-0----1-----1-1-------------|
B|-----1-1-----1-1----0-----0-0----1-----1-1----1-----1-1-------------|
G|-----2-2-----2-2----0-0---0-0----2-2---2-2----2-2---2-2-------------|
D|-----0-0-0h2-0-0----2---2-2-2----2---2-2-2----3---3-3-3-------------|
A|--3--3-3-----3-3--2-2-----2-2--0-0-----0-0--3-3-----3-3-------------|
E|--------------------0-----0-0----0-----0-0----1-----1-1-------------|



e|-----0-0-----0-0-----3-3------3-3---1-1-1-----0----0-0-----0-0------|
B|-----1-1-----1-1-----3-3------3-3---1-1---1--------1-1-----1-1------|
G|-----2-2-----2-2-----0-0------0-0---2-2-----2------2-2-----2-2------|
D|-----0-0-0h2-0-0-----0-0—---0-0-0---3-3------------0-0-0h2-0-0------|
A|--3--3-3-----3-3-----2-2--2---2-2---3-3---------3--3-3-----3-3------|
E|------------------3--3—3------3-3---1-1-----------------------------|

Bridge:

e|-----0—3p0------1-1--1-----0----0-0-----0-0------3-3------3-3-------|
B|-----1-----1----1-1----1--------1-1-----1-1------3-3------3-3-------|
G|-----2-------0--2-2------2------2-2-----2-2------0-0------0-0-------|
D|-----0----------3-3-------------0-0-0h2-0-0------0-0----0-0-0-------|
A|--3--3----------3-3----------3--3-3-----3-3------2-2--2---2-2-------|
E|----------------1-1---------------------------3--3-3------3-3-------|

e|-----0—3p0------1-1--1-----0----0-0-----0-0------3-3------3-3-------|
B|-----1-----1----1-1----1--------1-1-----1-1------3-3------3-3-------|
G|-----2-------0--2-2------2------2-2-----2-2------0-0------0-0-------|
D|-----0----------3-3-------------0-0-0h2-0-0------0-0----0-0-0-------|
A|--3--3----------3-3----------3--3-3-----3-3------2-2--2---2-2-------|
E|----------------1-1---------------------------3--3-3------3-3-------|

e|--1-1--1-----0-----0-0-----0-0--------------------------------------|
B|--1-1----1---------1-1-----1-1--------------------------------------|
G|--2-2------2-------2-2-----2-2--------------------------------------|
D|--3-3--------------0-0—0h2-0-0--------------------------------------|
A|--3-3-----------3--3-3-----3-3--------------------------------------|
E|--1-1---------------------------------------------------------------|


************************************

| /   slide up
| \   slide down
| h   hammer-on
| p   pull-off
| ~   vibrato
| +   harmonic
| x   Mute note
| b   Bend
| pb  Pre-bend
| br  Bend release
| pbr Pre-bend release
| brb Bend release bend









Chorus:
C                F
Sick and sad again,
C                      G
sometimes I'd like the rain to end.
C                F
Sick and sad again,
C           G       F           C
sometimes I like to stand on my own two feet.
[ Tab from: http://www.guitaretab.com/t/toh-kay/312610.html ]
Verse:
C                     Em
Went to the corner of second and main
Am
but there was someone there who mentioned
F                             C        G
that they hoped it would rain forever, forever,
              F        C
so they could drown in peace.

C                Em
Went down to the Hodskin P.L.
Am
But there was nobody to answer
F                        C        G
when I rang the doorbell forever, forever.
           F           C
So now I'm sad all the time.

Chorus

Humming part
(Play verse chords)

Verse:
C                 Em
Today was the day but she threw it all away
Am
and I could never understand
F                                       C            G
'cause she was never one to play by the rules of the game
           F            C
her and me we're so the same.
C                 Em
I try so hard and I never give in,
Am                          F
and I am never going do, so pack it up, pack it in,
C
So there, but I don't care,
G                     F
I can fade away to anywhere don't stop,
            C
because you might get dropped

Chorus

Bridge:
C F C G
C F C G F C

Chorus
C           G       F           C
Sometimes I like to stand on my own two feet.
Tap to rate this tab
# A B C D E F G H I J K L M N O P Q R S T U V W X Y Z