Song name
# A B C D E F G H I J K L M N O P Q R S T U V W X Y Z

Tokio Hotel - Dont Jump tab

this is my first tab so enjoy.

i figured out by ear in standard tuning, so it might not be perfect
but it sounds pretty good to me.

any questions email me at: rainbowxxrawrxx@aim.com




INTRO (CLEAN)
e|-------------------------------------------------------------------------|
b|-------------------------------------------------------------------------|
g|--------------------------------666666666666------------(2X)-------------|
d|----6-------4------2-----1------777777777777-----------------------------|
a|------7-------6------4-----2---------------------------------------------|
e|--0------0-------0-----0-------------------------------------------------|



VERSE (CLEAN)
e|-------------------------------------------------------------------------|
b|-------------------------------------------------------------------------|
g|--------------------------------666666666666------------(4X)--------------|
d|----6-------4------2-----1------777777777777-----------------------------|
a|------7-------6------4-----2---------------------------------------------|
e|--0------0-------0-----0-------------------------------------------------|



CHORUS (DISTORTION)
e|-------------------------------------------------------------------------|
b|-------------------------------------------------------------------------|
g|-------------------------------------------------------------------------|
d|--2---4---6----7777777777--9999999999--7777777777--6666666666------(2x)--|
a|--2---4---6----7777777777--9999999999--5555555555--4444444444------------|
e|--0---2---4----5555555555--7777777777------------------------------------|




e|-------------------------------------------------------------------------|
b|-------------------------------------------------------------------------|
g|-------------------------------------------------------------------------|
d|---7777777777--9999999999--2222222222----7~--9~--------------------------|
a|---7777777777--9999999999--2222222222----5~--9~--------------------------|
e|---5555555555--7777777777--0000000000----5~--7~--------------------------|




VERSE (CLEAN)
e|-------------------------------------------------------------------------|
b|-------------------------------------------------------------------------|
g|--------------------------------666666666666--------(4X)-----------------|
d|----6-------4------2-----1------777777777777-----------------------------|
a|------7-------6------4-----2---------------------------------------------|
e|--0------0-------0-----0-------------------------------------------------|



CHORUS (DISTORTION)
e|-------------------------------------------------------------------------|
b|-------------------------------------------------------------------------|
g|-------------------------------------------------------------------------|
d|--2---4---6----7777777777--9999999999--7777777777--6666666666------(2x)--|
a|--2---4---6----7777777777--9999999999--5555555555--4444444444------------|
e|--0---2---4----5555555555--7777777777------------------------------------|


e|-------------------------------------------------------------------------|
b|-------------------------------------------------------------------------|
g|-------------------------------------------------------------------------|
d|---7777777777--9999999999--2222222222----7777777777----------------------|
a|---7777777777--9999999999--2222222222----5555555555----------------------|
e|---5555555555--7777777777--0000000000----5555555555----------------------|




e|-------------------------------------------------------------------------|
b|-------------------------------------------------------------------------|
g|-------------------------------------------------------------------------|
d|---7777777777---9999999999-----------------------------------------------|
a|---7777777777---9999999999-----------------------------------------------|
e|---5555555555---7777777777-----------------------------------------------|



BRIDGE (DISTORTION)
e|-----------------------7---7---------------------------------------------|
b|---5555---7777--99-------5---5-4-5--5555---7777--99---(4X)---------------|
g|-------------------------------------------------------------------------|
d|-------------------------------------------------------------------------|
a|-------------------------------------------------------------------------|
e|-------------------------------------------------------------------------|




e|-------------------------------------------------------------------------|
b|-------------------------------------------------------------------------|
g|---- 6-----4------6~-----------------------------------------------------|
d|-------7-----6----6~-----------------------------------------------------|
a|--0------0-----0--4~-----------------------------------------------------|
e|-------------------------------------------------------------------------|





e|-------------------------------------------------------------------------|
b|-------------------------------------------------------------------------|
g|-------------------------------------------------------------------------|
d|----4-4-4-4-4-4-4--------------------------------------------------------|
a|----4-4-4-4-4-4-4--------------------------------------------------------|
e|----2-2-2-2-2-2-2--------------------------------------------------------|




CHORUS (DISTORTION)
e|-------------------------------------------------------------------------|
b|-------------------------------------------------------------------------|
g|-------------------------------------------------------------------------|
d|-4-4--6--7777777777--9999999999--7777777777--6666666666------(2x)--------|
a|-4-4--6--7777777777--9999999999--5555555555--4444444444------------------|
e|-2-2--4--5555555555--7777777777------------------------------------------|

 


e|-------------------------------------------------------------------------|
b|-------------------------------------------------------------------------|
g|-------------------------------------------------------------------------|
d|---7777777777--9999999999--2222222222----7777777777----------------------|
a|---7777777777--9999999999--2222222222----5555555555----------------------|
e|---5555555555--7777777777--0000000000----5555555555----------------------|




e|-------------------------------------------------------------------------|
b|-------------------------------------------------------------------------|
g|-------------------------------------------------------------------------|
d|---7777777777---9999999999--2222222222---7~----9~------------------------|
a|---7777777777---9999999999--2222222222---7~----9~------------------------|
e|---5555555555---7777777777--0000000000---5~----7~------------------------|



OUTRO (CLEAN)
e|-------------------------------------------------------------------------|
b|-------------------------------------------------------------------------|
g|-----------------6~------------------------------------------------------|
d|-----6-----4-----6~------------------------------------------------------|
a|-------7-----6---4~------------------------------------------------------|
e|---0-----0---------------------------------------------------------------|
Tap to rate this tab
 
# A B C D E F G H I J K L M N O P Q R S T U V W X Y Z