Song name
# A B C D E F G H I J K L M N O P Q R S T U V W X Y Z

Tokio Hotel - Schwarz Live tab

SCHWARZ(black) LIVE - TOKIO HOTEL

Tabbed by: Avrill 
e-mail   : avrill_xx@yahoo.com

tuning: half step down
  
 (works also on the studio version: standard tuning with capo on 3th fret)     



 INTRO + VERSE
eb|----------------------------|
Bb|----------------------------|
Gb|----------------------------| 
Db|----2-----------------------|  x12
Ab|--3---3-2-2------------2----|
Eb|------------3--3-3-2-0---0--|

 PRE-CHORUS
eb|----------------------------|
Bb|----------------------------|
Gb|----------------------------|
Db|--2-22222--0-000000---------|
Ab|--3-33333--2-222222---------|
Eb|----------------------------|

 CHORUS

eb|--3--3-3--0-0--2--2-2-2-2-2-2---|
Bb|--2--2-2--1-1--3--3-3-3-3-3-3---|
Gb|--3--3-3--2-2--4--4-4-4-4-4-4---|
Db|--0--0-0--2-2--4--4-4-4-4-4-4---|
Ab|----------0-0-------------------|
Eb|--------------------------------|

eb|--3--3-3--0-0--2--2-2-2-2-2-2---|
Bb|--2--2-2--1-1--3--3-3-3-3-3-3---|
Gb|--3--3-3--0-0--4--4-4-4-4-4-4---|  x2
Db|--0--0-0--2-2--4--4-4-4-4-4-4---|
Ab|----------3-3-------------------|
Eb|--------------------------------|

eb|--0-0-0-0-0-0-0--0-0-0-0-0-0-0--|
Bb|--1-1-1-1-1-1-1--0-0-0-0-0-0-0--|
Gb|--0-0-0-0-0-0-0--0-0-0-0-0-0-0--|
Db|--2-2-2-2-2-2-2--2-2-2-2-2-2-2--|
Ab|--3-3-3-3-3-3-3--3-3-3-3-3-3-3--|
Eb|--------------------------------|

 
VERSE
eb|----------------------------|
Bb|----------------------------|
Gb|----------------------------| 
Db|----2-----------------------|  x8
Ab|--3---3-2-2------------2----|
Eb|------------3--3-3-2-0---0--|


 CHORUS
eb|--3--3-3--0-0--2--2-2-2-2-2-2---|
Bb|--2--2-2--1-1--3--3-3-3-3-3-3---|
Gb|--3--3-3--2-2--4--4-4-4-4-4-4---|
Db|--0--0-0--2-2--4--4-4-4-4-4-4---|
Ab|----------0-0-------------------|
Eb|--------------------------------|

eb|--3--3-3--0-0--2--2-2-2-2-2-2---|
Bb|--2--2-2--1-1--3--3-3-3-3-3-3---|
Gb|--3--3-3--0-0--4--4-4-4-4-4-4---|  x2
Db|--0--0-0--2-2--4--4-4-4-4-4-4---|
Ab|----------3-3-------------------|
Eb|--------------------------------|

eb|--0-0-0-0-0-0-0--0-0-0-0-0-0-0--|
Bb|--1-1-1-1-1-1-1--0-0-0-0-0-0-0--|
Gb|--0-0-0-0-0-0-0--0-0-0-0-0-0-0--|
Db|--2-2-2-2-2-2-2--2-2-2-2-2-2-2--|
Ab|--3-3-3-3-3-3-3--3-3-3-3-3-3-3--|
Eb|--------------------------------|

 POST CHORUS
eb|----------------------------|
Bb|----------------------------|
Gb|----------------------------| 
Db|----2-----------------------|  x4
Ab|--3---3-2-2------------2----|
Eb|------------3--3-3-2-0---0--|


 INTERLUDE
  guitar stops playing, bass continues

eb|----------------------------|
Bb|----------------------------|
Gb|----------------------------| 
Db|----2-----------------------|  x2
Ab|--3---3-2-2------------2----|
Eb|------------3--3-3-2-0---0--|


eb|----------------------------|
Bb|----------------------------|
Gb|----------------------------|
Db|--2-22222--0-000000---------|  
Ab|--3-33333--2-222222---------|
Eb|----------------------------|

 CHORUS
eb|--------------------------------|
Bb|--------------------------------|
Gb|--------------------------------|
Db|--12121212--101010--99999999----| x3
Ab|--12121212--101010--99999999----|
Eb|--10101010--8-8-8---77777777----|

eb|-----------------------------------|
Bb|-----------------------------------|
Gb|-----------------------------------|
Db|--10101010101010--10101010101010---|  
Ab|--10101010101010--10101010101010---|
Eb|--8-8-8-8-8-8-8---7-7-7-7-7-7-7----|

eb|--------------------------------|
Bb|--------------------------------|
Gb|--------------------------------|
Db|--12121212--101010--99999999----| x3
Ab|--12121212--101010--99999999----|
Eb|--10101010--8-8-8---77777777----|

eb|-----------------------------------|
Bb|-----------------------------------|
Gb|-----------------------------------|
Db|--10101010101010--10101010101010---| x2 
Ab|--10101010101010--10101010101010---|
Eb|--8-8-8-8-8-8-8---7-7-7-7-7-7-7----|


Tap to rate this tab
# A B C D E F G H I J K L M N O P Q R S T U V W X Y Z