Song name
# A B C D E F G H I J K L M N O P Q R S T U V W X Y Z

Tokio Hotel - Shrei Acoustic tab

this is the tab for shrei in acoustic


e|-------------|
B|-------------|
G|--4-4--------|
D|--4-4-2/3/0/2| x3
A|--2-2--------|
E|-------------|

e|-------------------------------------|
b|-------------------------------------|
g|--4--44444---------9/6-66666---------|
d|--4--44444-5-5555--9/6-66666-7-777777|
a|--2--22222-3-3333--7/4-44444-5-555555|

e|--------------------|
b|-555555555-777777777|
g|-555555555-777777777|
d|-333333333-555555555|
a|--------------------|

e|-------------    -----|
B|-------------    -----|
G|--4-4--------    4568-|
D|--4-4-2/3/0/2 x2 4568-|
A|--2-2--------    2346-|
E|-------------    -----|

e|-----------------|
B|-----------------|
G|--4-4------------|
D|--4-4-2/3/0/2 *3-|
A|--2-2------------|
E|-----------------|  thank you jerome denizeau
Tap to rate this tab
 
# A B C D E F G H I J K L M N O P Q R S T U V W X Y Z