Song name
# A B C D E F G H I J K L M N O P Q R S T U V W X Y Z

Tokio Hotel - Monsoon tab

Most of you probably know the verse part,
if not I seen other tabs on here with the
correct way to play the verse. I watched all
the acoustic versions of Tom Kaulitz playing Monsoon,
and I kinda figured it out by ear, anyways here's
the tabs for the chorus.

It starts with a C chord and you just slide the C down to the 3rd fret.

..monsoon, beyond the world, to the end of..
     E-------------------------------------|
     A-1-1-1-1-1-1-1---3--3--3--3--3--3--3-|
     D-------------------------------------|
     G-2-2-2-2-2-2-2---4--4--4--4--4--4--4-|
     B-3-3-3-3-3-3-3---5--5--5--5--5--5--5-|
     E-------------------------------------|


   ...time, where the rain won't hurt, fighting the..
     E----------------------------------------------|
     A-8---8---8---8---8---8--8---3--3--3--3--3--3--|
     D-9---9---9---9---9---9--9---4--4--4--4--4--4--|
     G-9---9---9---9---9---9--9---4--4--4--4--4--4--|
     B-7---7---7---7---7---7--7---2--2--2--2--2--2--|
     E----------------------------------------------|

    ..storm, into the blue, and when I lose..
     E-------------------------------------|
     A-1-1-1-1-1-1-1--3--3--3--3--3--3--3--|
     D-------------------------------------|
     G-2-2-2-2-2-2-2--4--4--4--4--4--4--4--|
     B-3-3-3-3-3-3-3--5--5--5--5--5--5--5--|
     E-------------------------------------|

  ..myself, I think of you. Together we'll be..
     E------------------------------------------|
     A-3---3--3--3--3---8----8---8---8---8---8--|
     D-4---4--4--4--4---9----9---9---9---9---9--|
     G-4---4--4--4--4---9----9---9---9---9---9--|
     B-2---2--2--2--2---7----7---7---7---7---7--|
     E------------------------------------------|

   ...running somewhere new...
     E----------------------|
     A-1--1--1--1--1--1--3--|
     D----------------------|
     G-2--2--2--2--2--2--4--|
     B-3--3--3--3--3--3--5--|
     E----------------------|

And then the part that goes
"...through the monsoon, just me and you.."
You play that with the verse tabs.
Well I'm pretty sure thats 100% right.

Here is another way to play it,
or 2 guitarist could play both together.

   ...monsoon, beyond the world, to the end of..
     E-3-----3-----3-------2------2------2-----|
     A--5-----5-----5--------3------3------3---|
     D---5-----5---------------2------2--------|
     G-----------------------------------------|
     B-----------------------------------------|
     E-----------------------------------------|

   ...time, where the rain won't hurt, fighting the..
     E--3------3------3----------------------------|
     A----5------5------5--------7-----7-----7-----|
     D------4------4---------------7-----7-----7---|
     G-------------------------------9-----9-------|
     B---------------------------------------------|
     E---------------------------------------------|

   ..storm, into the blue, and when I lose..
     E-3----3----3----2-------2-------2-----|
     A--5----5----5-----3-------3-------3---|
     D---5----5-----------2-------2---------|
     G--------------------------------------|
     B--------------------------------------|
     E--------------------------------------|


    ...myself I think of you. Together we'll be..
     E-------------------3-------3--------3-------|
     A--7----7----7--------5-------5--------5-----|
     D---7----7-----7--------4-------4------------|
     G----9----9----------------------------------|
     B--------------------------------------------|
     E--------------------------------------------|


   ...running somewhere new..
     E--3----3----3------2----|
     A----5----5----5----3----|
     D------5----5-------2----|
     G------------------------|
     B------------------------|
     E------------------------|

..through the monsoon....just me and you...
            E-12-14-12-8-------------12-14-12-15-|
            A------------------------------------|
            D------------------------------------|

Thats it, enjoy!
Tap to rate this tab
# A B C D E F G H I J K L M N O P Q R S T U V W X Y Z