Song name
# A B C D E F G H I J K L M N O P Q R S T U V W X Y Z

Tokio Hotel - Nach Dir Kommt Nichts tab

I did this by ear, so It's not 100% right, but it think it sounds just fine (:

Tuning: Standard Eb


Intro
E |-----------------------------|
H |-----------------------------|
G |----------------55555--------|
D |--2222---55555--55555--77777-|   x2
A |--2222---55555--22222--77777-|
E |---------22222---------55555-|

Verse
      Meine beste Sünde...
E |-----------------------------|
H |-----------------------------|
G |----------------55555--------|
D |--222222-55555--55555--77777-|   x2
A |--222222-55555--22222--77777-|
E |---------22222---------55555-|

Pre-Chorus
       ...Ich fühl mich,  
H |-----------------------------|
G |----------------55555--------|
D |--222222-55555--55555--77777-|   
A |--222222-55555--22222--77777-|
E |---------22222---------55555-|

E |-------------------------------|
H |-------------------------------|
G |----------------55555--7777xx7-|
D |--2222---55555--55555--7777xx7-|   
A |--2222---55555--22222--5555xx5-|
E |---------22222-----------------|

Chorus 
        ...Nach Dir kommt nichts,
E |-----------------------------|
H |-----------------------------|
G |----------------55555--------|
D |--2222---55555--55555--77777-|   x3
A |--2222---55555--22222--77777-|
E |---------22222---------55555-|

        ...Du bist und warst und wirst nie wieder,
E |-----------------------------|
H |-----------------------------|
G |---55555555---7777777-xx-----|
D |---55555555---7777777-xx-----|   
A |---22222222---5555555-xx-----|
E |-----------------------------|


Intro
E |-----------------------------|
H |-----------------------------|
G |----------------55555--------|
D |--2222---55555--55555--77777-|   
A |--2222---55555--22222--77777-|
E |---------22222---------55555-|

Verse
      ...Du bist wie ein Alptraum,
E |-----------------------------|
H |-----------------------------|
G |----------------55555--------|
D |--222222-55555--55555--77777-|   x2
A |--222222-55555--22222--77777-|
E |---------22222---------55555-|

Pre-Chorus
      ...Besessen, von Deinem Fluch,  
H |-----------------------------|
G |----------------55555--------|
D |--222222-55555--55555--77777-|   
A |--222222-55555--22222--77777-|
E |---------22222---------55555-|

E |-------------------------------|
H |-------------------------------|
G |----------------55555--7777xx7-|
D |--2222---55555--55555--7777xx7-|   
A |--2222---55555--22222--5555xx5-|
E |---------22222-----------------|


Chorus 
        ...Nach Dir kommt nichts,
E |-----------------------------|
H |-----------------------------|
G |----------------55555--------|
D |--2222---55555--55555--77777-|   x3
A |--2222---55555--22222--77777-|
E |---------22222---------55555-|

        ...Du bist und warst und wirst nie wieder,
E |-----------------------------|
H |-----------------------------|
G |---55555555---7777777--------|
D |---55555555---7777777--------|   
A |---22222222---5555555--------|
E |-----------------------------|

        ...Ich bin und war und wird nie wieder glücklick sein,
E |-----------------------------|
H |-----------------------------|
G |---55555555---7777777--------|
D |---55555555---7777777--------|   
A |---22222222---5555555--------|
E |-----------------------------|

Bridge
        ...Lass mich, verlass mich,
E |-----------------------------|
H |-----------------------------|
G |------------5555--7777-------|
D |-222--7777--5555--7777-------|   x2   
A |-222--7777--3333--5555-------|
E |------5555-------------------|

        ...Nach Dir kommt nichts,

E |-----------------------------|
H |-----------------------------|
G |------------55555------------|
D |-2-----5----55555------------|      
A |-2-----5----33333------------|
E |-------3---------------------|

Chorus 
        ...Nach Dir kommt nichts,
E |-----------------------------|
H |-----------------------------|
G |----------------55555--------|
D |--2222---55555--55555--77777-|   x3
A |--2222---55555--22222--77777-|
E |---------22222---------55555-|

        ...Du bist und warst und wirst nie wieder,
E |-----------------------------|
H |-----------------------------|
G |---55555555---7777777--------|
D |---55555555---7777777--------|   
A |---22222222---5555555--------|
E |-----------------------------|


 ...Nach Dir kommt nichts,
E |-----------------------------|
H |-----------------------------|
G |----------------55555--------|
D |--2222---55555--55555--77777-|   x3
A |--2222---55555--22222--77777-|
E |---------22222---------55555-|

        ...Du bist und warst und wirst nie wieder,
E |-----------------------------|
H |-----------------------------|
G |---55555555---7777777--------|
D |---55555555---7777777--------|   
A |---22222222---5555555--------|
E |-----------------------------|


     ...Ich bin und war und wird nie wieder glücklick sein,
E |-----------------------------|
H |-----------------------------|
G |---55555555---7777777--------|
D |---55555555---7777777--------|   
A |---22222222---5555555--------|
E |-----------------------------|

     ...Ich hasse dich
E |-------------|
H |-------------|
G |---77--------|
D |---77--------|   
A |---55--------|
E |-------------|

END


if u have any doubt, write me  wux_94_1332@hotmail.com
Tap to rate this tab
# A B C D E F G H I J K L M N O P Q R S T U V W X Y Z