Song name
# A B C D E F G H I J K L M N O P Q R S T U V W X Y Z

Tokio Hotel - Dark Side Of The Sun tab

----------------------------------------------------------------------------
SONG NAME - Band Name
----------------------------------------------------------------------------
Tabbed by:XxGuitarZer0xX

Email:Spongebobs400s@hotmail.com

Tuning:Standard

THIS IS ALL YOU NEED TO PLAY THE SONG.
JUST USE YOUR BRAIN AND PUT THINGS IN THE CORRECT ORDER.

Intro and Verses!
e|---------------------------------|
B|---------------------------------|
G|---------------------------------|
D|-3h4-4-4-4-----------------------|Repeat as many times as needed!
A|-----------4h6-6-6-6-------------|
E|---------------------4h6-6-6-6-6-|


Any Chorus uses these chords
e|--------------------------------------------|
B|--------------------------------------------|
G|-10-11-11-11-11-6/8-8-8-8-------------------| Repeat as many times as
D|-10/11-11-11-11-6/8-8-8-8-6/8-8-8-8-8-8-8-8-| Needed!
A|-8-/9--9--9--9--4/6-6-6-6-6/8-8-8-8-8-8-8-8-|
E|--------------------------4/6-6-6-6-6-6-6-6-|

Bridge stars after second chorus when he says Sun very high pitch
e|-----------------------------------------------------------------|
B|-----------------------------------------------------------------|
G|--------------------8~----------8~----------8~----------8~-------|
D|-4~-6~-8~-10/8/6/4~-8~-8~-6~-4~-8~-8~-6~-4~-8~-8~-6~-4~-8~-8~-6~-|
A|-4~-6~-8~-10/8/6/4~-6~-8~-6~-4~-6~-8~-6~-4~-6~-8~-6~-4~-6~-8~-6~-|
E|-2~-4~-6~-8-/6/4/2~----6~-4~-2~----6~-4~-2~----6~-4~-2~----6~-4~-|

Repeat what has to be repeated after that

Hope this helps!

============================================================================
Tap to rate this tab
 
# A B C D E F G H I J K L M N O P Q R S T U V W X Y Z