Song name
# A B C D E F G H I J K L M N O P Q R S T U V W X Y Z

Tokio Hotel - Human Connect To Human tab

----------------------------------------------------------------------------
			     Human Connect to Human - Tokio Hotel
----------------------------------------------------------------------------

Tabbed by:XxGuitarZer0xX

Email:Spongebobs400s@hotmail.com

Tuning:Guitar 1 - Drop D(fattest string isnt used with guitar 1)
       Guitar 2 - Drop D

This is 100% correct, worthy of your 5 star approval
Tabbed by ear.


Intro - Guitar 1
e|--------------------------------------|
B|--------------------------------------|
G|---11---9~---9---7~---4---2~--4-------|
D|-9----9----7---7----2---2---5---5/7~\-|
A|--------------------------------------|
E|--------------------------------------|

Guitar 2
e|-----------------------------|
B|-----------------------------|
G|-----------------------------|
D|-xxx22-xxx77-xxx1010-xxx1212-|
A|-xxx22-xxx77-xxx1010-xxx1212-|
E|-xxx22-xxx77-xxx1010-xxx1212-|

Verse - Guitar 1
e|--------------------------------------|
B|--------------------------------------|
G|---11---9~---9---7~---4---2~--4-------|
D|-9----9----7---7----2---2---5---5/7~\-|
A|--------------------------------------|
E|--------------------------------------|

Guitar 2 comes in after the verse is played once

e|-----------------------------|
B|-----------------------------|
G|-----------------------------|
D|-xxx22-xxx77-xxx1010-xxx1212-|
A|-xxx22-xxx77-xxx1010-xxx1212-|
E|-xxx22-xxx77-xxx1010-xxx1212-|

Pre Chorus - Guitar 1
e|-------------------|
B|-------------------|
G|---11---9~--9---7~-|
D|-9----9---7---7----|
A|-------------------|
E|-------------------|
After the 9 on the G the guitar volume goes down

Chorus - Guitar 1
e|-----------------------------------------------------------------------|
B|-----------------------------------------------------------------------|
G|-9999999999999999-22222222-5555555-9999999999999999-22222222-5555-7777-|
D|-9999999999999999-22222222-5555555-9999999999999999-22222222-5555-7777-|
A|-7777777777777777-00000000-3333333-7777777777777777-00000000-3333-5555-|
E|-----------------------------------------------------------------------|
Repeat this until the chorus ends

Guitar 2
e|-----------------------------------------------------------------------|
B|-----------------------------------------------------------------------|
G|---------------------------55555555--------------------------5555-7777-|
D|-2222222222222222-77777777-55555555-222222222222222-77777777-5555-7777-|
A|-2222222222222222-77777777-33333333-222222222222222-77777777-3333-5555-|
E|-2222222222222222-77777777----------222222222222222-77777777-----------|
Repeat this until the chorus ends

Post Chorus - Guitar 1
e|--------------------------|
B|--------------------------|
G|-99999999999999-5555-7777-|
D|-99999999999999-5555-7777-|
A|-77777777777777-3333-5555-|
E|--------------------------|

Guitar 2
e|-------------------------------------------------------------|
B|-------------------------------------------------------------|
G|-------------------------------------------------5555-7777-9/|
D|-------------------------------------------------5555-7777-9/|
A|-------------------------------------------------3333-5555-7/|
E|-2-2-5~5-2-2-5~5-2-2-5~5-2-2-5~5-2-2-5~5-2-2-5~5-------------|


Verse - Guitar 1
e|--------------------------------------|
B|--------------------------------------|
G|---11---9~---9---7~---4---2~--4-------|
D|-9----9----7---7----2---2---5---5/7~\-|
A|--------------------------------------|
E|--------------------------------------|

Guitar 2 comes in after the verse is played once

e|-----------------------------|
B|-----------------------------|
G|-----------------------------|
D|-xxx22-xxx77-xxx1010-xxx1212-|
A|-xxx22-xxx77-xxx1010-xxx1212-|
E|-xxx22-xxx77-xxx1010-xxx1212-|


Pre Chorus - Guitar 1
e|-------------------|
B|-------------------|
G|---11---9~--9---7~-|
D|-9----9---7---7----|
A|-------------------|
E|-------------------|


Chorus - Guitar 1
e|-----------------------------------------------------------------------|
B|-----------------------------------------------------------------------|
G|-9999999999999999-22222222-5555555-9999999999999999-22222222-5555-7777-|
D|-9999999999999999-22222222-5555555-9999999999999999-22222222-5555-7777-|
A|-7777777777777777-00000000-3333333-7777777777777777-00000000-3333-5555-|
E|-----------------------------------------------------------------------|
Repeat this until the chorus ends

Guitar 2
e|-----------------------------------------------------------------------|
B|-----------------------------------------------------------------------|
G|---------------------------55555555--------------------------5555-7777-|
D|-2222222222222222-77777777-55555555-222222222222222-77777777-5555-7777-|
A|-2222222222222222-77777777-33333333-222222222222222-77777777-3333-5555-|
E|-2222222222222222-77777777----------222222222222222-77777777-----------|
Repeat this until the chorus ends


Post Chorus - Guitar 1
e|--------------------------|
B|--------------------------|
G|-99999999999999-5555-7777-|
D|-99999999999999-5555-7777-|
A|-77777777777777-3333-5555-|
E|--------------------------|

Guitar 2
e|-------------------------------------------------------------|
B|-------------------------------------------------------------|
G|-------------------------------------------------5555-7777-9/|
D|-------------------------------------------------5555-7777-9/|
A|-------------------------------------------------3333-5555-7/|
E|-2-2-5~5-2-2-5~5-2-2-5~5-2-2-5~5-2-2-5~5-2-2-5~5-------------|

Repeat this one more time


Break with no guitar


Bridge
e|---------------------------------------------------------|
B|---------------------------------------------------------|
G|---------------------------------------------------------|
D|----22-2/88---8\-22-2/88---8\-22-2/88--8\-22-2/88-10-10~-|
A|----22-2/88---8\-22-2/88---8\-22-2/88--8\-22-2/88-10-10~-|
E|-8\-22-2/88---8\-22-2/88---8\-22-2/88--8\-22-2/88-10-10~-|


Chorus - Guitar 1
e|-----------------------------------------------------------------------|
B|-----------------------------------------------------------------------|
G|-9999999999999999-22222222-5555555-9999999999999999-22222222-5555-7777-|
D|-9999999999999999-22222222-5555555-9999999999999999-22222222-5555-7777-|
A|-7777777777777777-00000000-3333333-7777777777777777-00000000-3333-5555-|
E|-----------------------------------------------------------------------|
Repeat this until the chorus ends

Guitar 2
e|-----------------------------------------------------------------------|
B|-----------------------------------------------------------------------|
G|---------------------------55555555--------------------------5555-7777-|
D|-2222222222222222-77777777-55555555-222222222222222-77777777-5555-7777-|
A|-2222222222222222-77777777-33333333-222222222222222-77777777-3333-5555-|
E|-2222222222222222-77777777----------222222222222222-77777777-----------|
Repeat this until the chorus ends


Outro - Guitar 1
e|--------------------------|
B|--------------------------|
G|-99999999999999-5555-7777-|
D|-99999999999999-5555-7777-|
A|-77777777777777-3333-5555-|
E|--------------------------|
Repeat this until the song ends

Guitar 2
e|-----------------------------------------------------------|
B|-----------------------------------------------------------|
G|-------------------------------------------------5555-7777-|
D|-------------------------------------------------5555-7777-|
A|-------------------------------------------------3333-5555-|
E|-2-2-5~5-2-2-5~5-2-2-5~5-2-2-5~5-2-2-5~5-2-2-5~5-----------|
Repeat this until the song ends

END OF SONG

HOPE YOU ENJOYED MY TAB!

Just so everyone knows this repeats through out the whole song in many places, Throw it
where ever you would like to!
e|-------------------------------------------------|
B|-------------------------------------------------|
G|-------------------------------------------------|
D|-------------------------------------------------|
A|-------------------------------------------------|
E|-2-2-5~5-2-2-5~5-2-2-5~5-2-2-5~5-2-2-5~5-2-2-5~5-|
Tap to rate this tab
 
# A B C D E F G H I J K L M N O P Q R S T U V W X Y Z