Song name
# A B C D E F G H I J K L M N O P Q R S T U V W X Y Z

Tokio Hotel - Humanoid tab

-----------------------------------------------------------------------------
			     Humanoid - Tokio Hotel
-----------------------------------------------------------------------------

Tabbed by:XxGuitarZer0xX

Email:Spongebobs400s@hotmail.com

Tuning: Drop B <-----(LOL)

Drop B tuning

C#   <- Thinnest String
G#
E
B
F#
B    <- Thickest String


Guitar 1 and 2 are both Drop B

This tab is 100% correct. Tabbed by ear

For best use of this tab with one guitar, try to combine both guitar parts when 
See what combinations of sound you can make. Song is pretty simple but multiple guitar parts and 
tuning makes it hard to play.

Have fun.

XxGuitarZer0xX


Intro - Guitar 1 - every thing for this guitar is PALM MUTED
C#|-------------------------------------------|
G#|-------------------------------------------|
E |-------------------------------------------|
B |-------------------------------------------|
F#|-------------------------------------------|
B |-3-5555-3-5555-3-5555-0-1111-0-1111-0-1111-|

Intro - Guitar 2 - PALM MUTE areas are marked with *s
C#|-------------------------------------|
G#|-------------------------------------|
E |-------------------------------------|
B |-3-5555-3-55555555-0-1111-0-11111111-|
F#|-3-5555-3-55555555-0-1111-0-11111111-|
B |-3-5555-3-55555555-0-1111-0-11111111-|
    * **** *          * **** *


Verse 1 - Guitar 1 - every thing for this guitar is PALM MUTED
C#|-------------------------------------------|
G#|-------------------------------------------|
E |-------------------------------------------|
B |-------------------------------------------| Repeat 3 more times
F#|-------------------------------------------|
B |-3-5555-3-5555-3-5555-0-1111-0-1111-0-1111-|

Verse 1  - Guitar 2 - PALM MUTE areas are marked with *s
C#|-------------------------------------|
G#|-------------------------------------|
E |-------------------------------------|
B |-3-5555-3-55555555-0-1111-0-11111111-| Repeat 3 more times
F#|-3-5555-3-55555555-0-1111-0-11111111-|
B |-3-5555-3-55555555-0-1111-0-11111111-|
    * **** *          * **** *


Chorus - Guitar 1 - no palm muting
C#|-------------------------------------------|
G#|-------------------------------------------|
E |-------------------------------------------|
B |-------------------------------------------| Repeat 1 more time
F#|-------------------------------------------|
B |-3-5555-3-5555-3-5555-0-1111-0-1111-0-1111-|

Chorus - Guitar 2 - No palm muting
C#|------------------------------------|
G#|------------------------------------|
E |------------------------------------|
B |-5555555555555555-11111111111111111-| Repeat 1 more time
F#|-5555555555555555-11111111111111111-|
B |-5555555555555555-11111111111111111-|


Verse 2 (part 1) - One guitar only, with a bass guitar background
C#|----------------|
G#|----------------|
E |----------------|
B |-55--11--55--11-|
F#|-55--11--55--11-|
B |-55--11--55--11-|


Verse 2 (part 2) - Guitar 1
C#|----------------|
G#|----------------|
E |----------------|
B |-55--11--55--11-| Repeat once more
F#|-55--11--55--11-|
B |-55--11--55--11-|

Verse 2 (part 2) - Guitar 2
C#|-15~-----15~-----|
G#|-----18~-----18~-|
E |-----------------|
B |-----------------| Repeat two more times
F#|-----------------|
B |-----------------|


Chorus - Guitar 1 - no palm muting
C#|-------------------------------------------|
G#|-------------------------------------------|
E |-------------------------------------------|
B |-------------------------------------------| Repeat 3 more times
F#|-------------------------------------------|
B |-3-5555-3-5555-3-5555-0-1111-0-1111-0-1111-|

Chorus - Guitar 2 - No palm muting
C#|------------------------------------|
G#|------------------------------------|
E |------------------------------------|
B |-5555555555555555-11111111111111111-| Repeat 3 more times
F#|-5555555555555555-11111111111111111-|
B |-5555555555555555-11111111111111111-|


Post Chorus - both guitars
C#|-------------------------------------|
G#|-------------------------------------|
E |-------------------------------------|
B |-33333333-11111111-33333333-11111111-|
F#|-33333333-11111111-33333333-11111111-|
B |-33333333-11111111-33333333-11111111-|


Bridge First time - Both guitars
C#|-------------------------------------------------------------------------|
G#|-------------------------------------------------------------------------|
E |-3333333333333333-7777777777777777-8888888888888888888888888888/10101010-|
B |-3333333333333333-7777777777777777-8888888888888888888888888888/x-x-x-x--|
F#|-1111111111111111-5555555555555555-6666666666666666666666666666/8-8-8-8--|
B |-------------------------------------------------------------------------|


Post Bridge - Guitar 1
C#|---------------------------------------------------------------|
G#|---------------------------------------------------------------|
E |---------------------------------------------------------------|
B |-55--11--55--11--55--11--55-0-1111-0-1111-0-1111-0-1111-0-1111-|
F#|-55--11--55--11--55--11--55-0-1111-0-1111-0-1111-0-1111-0-1111-|
B |-55--11--55--11--55--11--55-0-1111-0-1111-0-1111-0-1111-0-1111-|

Post Bridge - Guitar 2
C#|-15~-----15~-----|
G#|-----18~-----18~-|
E |-----------------|
B |-----------------| Repeat 7 more times
F#|-----------------|
B |-----------------|


Chorus - Guitar 1 - no palm muting
C#|-------------------------------------------|
G#|-------------------------------------------|
E |-------------------------------------------|
B |-------------------------------------------| Repeat 3 more times
F#|-------------------------------------------|
B |-3-5555-3-5555-3-5555-0-1111-0-1111-0-1111-|

Chorus - Guitar 2 - No palm muting
C#|------------------------------------|
G#|------------------------------------|
E |------------------------------------|
B |-5555555555555555-11111111111111111-| Repeat 3 more times
F#|-5555555555555555-11111111111111111-|
B |-5555555555555555-11111111111111111-|


Post Chorus - both guitars
C#|-------------------------------------|
G#|-------------------------------------|
E |-------------------------------------|
B |-33333333-11111111-33333333-11111111-| Repeat once more
F#|-33333333-11111111-33333333-11111111-|
B |-33333333-11111111-33333333-11111111-|


(Post) Post Chorus - Note leading into second Bridge
C#|------------------|
G#|------------------|
E |-3333333333333333-|
B |-3333333333333333-|
F#|-1111111111111111-|
B |------------------|


Bridge Second Time - Both guitars
C#|-------------------------------------------------------------------------|
G#|-------------------------------------------------------------------------|
E |-3333333333333333-7777777777777777-8888888888888888888888888888/10101010-|
B |-3333333333333333-7777777777777777-8888888888888888888888888888/x-x-x-x--|
F#|-1111111111111111-5555555555555555-6666666666666666666666666666/8-8-8-8--|
B |-------------------------------------------------------------------------|
Repeat this whole thing one more time


Solo - Guitar 1
C#|---------------------------------------------------------------------|
G#|---------------------------------------------------------------------|
E |---------------------------------------------------------------------|
B |-/17\8/15\8-12-12-/17\8/15\8-12-12-/17\8/15\8-12-12-/17\8/15\8-12-12-|
F#|---------------------------------------------------------------------|
B |---------------------------------------------------------------------|

Solo - Guitar 2
C#|----------------|
G#|----------------|
E |----------------|
B |-55--11--55--11-|
F#|-55--11--55--11-|
B |-55--11--55--11-|


Outro - Guitar 1
C#|-------------------------------------------|
G#|-------------------------------------------|
E |-------------------------------------------|
B |-------------------------------------------| Repeat once and stop on the first 1
F#|-------------------------------------------|
B |-3-5555-3-5555-3-5555-0-1111-0-1111-0-1111-|

Outro - Guitar 2
C#|----------------|
G#|----------------|
E |----------------|
B |-55--11--55--11-|
F#|-55--11--55--11-|
B |-55--11--55--11-|

Outro - Guitar 3
C#|-15~-----15~-----|
G#|-----18~-----18~-|
E |-----------------|
B |-----------------| repeat 2 more times
F#|-----------------|
B |-----------------|


100% correct have fun, More Tokio hotel Songs to come

Songs off of HUMANOID
Tap to rate this tab
 
# A B C D E F G H I J K L M N O P Q R S T U V W X Y Z