Song name
# A B C D E F G H I J K L M N O P Q R S T U V W X Y Z

Tokio Hotel - Screamin tab

-----------------------------------------------------------------------------
			     Screamin - Tokio Hotel
-----------------------------------------------------------------------------

Tabbed by:XxGuitarZer0xX

Email:Spongebobs400s@hotmail.com

Tuning:Drop D

Here you go 100% correct!




Intro
e|-7/14~-----------------|
B|-------13/12-12/11-----|
G|-------------------13~-|
D|-----------------------| Repeat once more
A|-----------------------|
E|-----------------------|




Verse - PM means Palm Mute and the * is where to Palm Mute (Those are tens)
e|--------------------------------------------------------------------------------|
B|--------------------------------------------------------------------------------|
G|--------------------------------------------------------------------------------|
D|---9~------------------9~-------------------------------------------------------| Repeat
A|-9----99-9-10-10--10-9----99-9-10-10--10-9--------------------------------------| once more
E|-9----99-9-10-10--10-9----99-9-10-10--10-9---99-9-10-10--10-9---99-9-10-10--10--|
PM      ** * *  *   *       ** * *  *   *  *   ** * *  *   *  *   ** * *  *    *  




PreChorus - Guitar 1 
e|---------------------------|
B|---------------------------|
G|---------------------------|
D|-2222222222222222-55555555-|
A|-2222222222222222-55555555-|
E|-2222222222222222-55555555-|
PM **************** ********

Guitar 2
e|------------|
B|------------|
G|------------|
D|-2--2--5--5-|
A|-2--2--5--5-|
E|-2--2--5--5-|

Guitar 3 - Plays to the notes of Tom's singing.
e|---------------------------------2-22-22222-22-3/-|
B|----------5~--------------------------------------|
G|-4-4-4-7~----4~---4-4-4-7~-6~---------------------|
D|------------------------------7~------------------|
A|--------------------------------------------------|
E|--------------------------------------------------|




Chorus - Part 1 - Guitar 1
e|-----------------------------------------------------------------------|
B|-----------------------------------------------------------------------|
G|-------------------8888888888888888-------------------8888888888888888-|
D|-99999999-55555555-8888888888888888-99999999-55555555-8888888888888888-|
A|-99999999-55555555-6666666666666666-99999999-55555555-6666666666666666-|
E|-99999999-55555555------------------99999999-55555555------------------|

Chorus - Part 1 - Guitar 2
e|-----------------------------------------------------------------------|
B|-----------------------------------------------------------------------|
G|-----------------------------------------------------------------------|
D|-99999999-55555555-1111111111111111-99999999-55555555-1111111111111111-|
A|-99999999-55555555-1111111111111111-99999999-55555555-1111111111111111-|
E|-99999999-55555555-1111111111111111-99999999-55555555-1111111111111111-|

Chorus - Part 2 - Guitar 1
e|-----------------------------------------------------------------------|
B|-----------------------------------------------------------------------|
G|------------------------------------------------------8888888888888888-|
D|-99999999-55555555-6666666666666666-99999999-55555555-8888888888888888-|
A|-99999999-55555555-7777777777777777-99999999-55555555-6666666666666666-|
E|-99999999-55555555-6666666666666666-99999999-55555555------------------|

Chorus - Part 2 - Guitar 2
e|-----------------------------------------------------------------------|
B|-----------------------------------------------------------------------|
G|-----------------------------------------------------------------------|
D|-99999999-55555555-6666666666666666-99999999-55555555-1111111111111111-|
A|-99999999-55555555-7777777777777777-99999999-55555555-1111111111111111-|
E|-99999999-55555555-6666666666666666-99999999-55555555-1111111111111111-|




Verse - PM means Palm Mute and the * is where to Palm Mute (Those are tens)
e|--------------------------------------------------------------------------------|
B|--------------------------------------------------------------------------------|
G|--------------------------------------------------------------------------------|
D|---9~------------------9~-------------------------------------------------------| Repeat
A|-9----99-9-10-10--10-9----99-9-10-10--10-9--------------------------------------| once more
E|-9----99-9-10-10--10-9----99-9-10-10--10-9---99-9-10-10--10-9---99-9-10-10--10--|
PM      ** * *  *   *       ** * *  *   *  *   ** * *  *   *  *   ** * *  *    *  




PreChorus - Guitar 1 
e|---------------------------|
B|---------------------------|
G|---------------------------|
D|-2222222222222222-55555555-|
A|-2222222222222222-55555555-|
E|-2222222222222222-55555555-|
PM **************** ********

Guitar 2
e|------------|
B|------------|
G|------------|
D|-2--2--5--5-|
A|-2--2--5--5-|
E|-2--2--5--5-|

Guitar 3 - Plays to the notes of Tom's singing.
e|---------------------------------2-22-22222-22-3/-|
B|----------5~--------------------------------------|
G|-4-4-4-7~----4~---4-4-4-7~-6~---------------------|
D|------------------------------7~------------------|
A|--------------------------------------------------|
E|--------------------------------------------------|




Chorus - Part 1 - Guitar 1
e|-----------------------------------------------------------------------|
B|-----------------------------------------------------------------------|
G|-------------------8888888888888888-------------------8888888888888888-|
D|-99999999-55555555-8888888888888888-99999999-55555555-8888888888888888-|
A|-99999999-55555555-6666666666666666-99999999-55555555-6666666666666666-|
E|-99999999-55555555------------------99999999-55555555------------------|

Chorus - Part 1 - Guitar 2
e|-----------------------------------------------------------------------|
B|-----------------------------------------------------------------------|
G|-----------------------------------------------------------------------|
D|-99999999-55555555-1111111111111111-99999999-55555555-1111111111111111-|
A|-99999999-55555555-1111111111111111-99999999-55555555-1111111111111111-|
E|-99999999-55555555-1111111111111111-99999999-55555555-1111111111111111-|

Chorus - Part 2 - Guitar 1
e|-----------------------------------------------------------------------|
B|-----------------------------------------------------------------------|
G|------------------------------------------------------8888888888888888-|
D|-99999999-55555555-6666666666666666-99999999-55555555-8888888888888888-|
A|-99999999-55555555-7777777777777777-99999999-55555555-6666666666666666-|
E|-99999999-55555555-6666666666666666-99999999-55555555------------------|

Chorus - Part 2 - Guitar 2
e|-----------------------------------------------------------------------|
B|-----------------------------------------------------------------------|
G|-----------------------------------------------------------------------|
D|-99999999-55555555-6666666666666666-99999999-55555555-1111111111111111-|
A|-99999999-55555555-7777777777777777-99999999-55555555-1111111111111111-|
E|-99999999-55555555-6666666666666666-99999999-55555555-1111111111111111-|




Bridge 
e|-------------------------------------|
B|-------------------------------------|
G|-------------------------------------|
D|-9~-99----9~-99----9~-99----9~-99----|
A|-9~-99----9~-99----9~-99----9~-99----|
E|-9~-99-xx-9~-99-xx-9~-99-xx-9~-99-xx-|




Solo- BY HERNANER (Dude you rock)!  (Just edited it because there were few mistakes)
e|-------------------10----10-------------------10----10|
B|-------------------0-----0--------------------0-----0-|
G|-------2-----------7-----7--------------------7-----7-|
D|---0-------0----00----00----3333/1111-000--00----00---| Repeat once more
A|-2---2---2---2--00----00----3333/1111-000--00----00---|
E|----------------00----00----3333/1111-000--00----00---|
PM                **    **                   **    **
                              -------------
                     All the dotted line notes require heavy distortion  



Breakdown/Interlude
e|-------------------------------------------------------------------|
B|-------------------------------------------------------------------|
G|-44444444-22222222----------44444444-------------------------------|
D|-44444444-22222222-44444444-44444444-55555555-77777777-22222222222-|
A|-22222222-00000000-44444444-22222222-55555555-77777777-22222222222-|
E|-------------------44444444----------55555555-77777777-22222222222-|
PM ******** ******** ******** ******** ******** ******** ***********





Chorus - Part 1 - Guitar 1
e|-----------------------------------------------------------------------|
B|-----------------------------------------------------------------------|
G|-------------------8888888888888888-------------------8888888888888888-|
D|-99999999-55555555-8888888888888888-99999999-55555555-8888888888888888-|
A|-99999999-55555555-6666666666666666-99999999-55555555-6666666666666666-|
E|-99999999-55555555------------------99999999-55555555------------------|

Chorus - Part 1 - Guitar 2
e|-----------------------------------------------------------------------|
B|-----------------------------------------------------------------------|
G|-----------------------------------------------------------------------|
D|-99999999-55555555-1111111111111111-99999999-55555555-1111111111111111-|
A|-99999999-55555555-1111111111111111-99999999-55555555-1111111111111111-|
E|-99999999-55555555-1111111111111111-99999999-55555555-1111111111111111-|

Chorus - Part 2 - Guitar 1
e|-----------------------------------------------------------------------|
B|-----------------------------------------------------------------------|
G|------------------------------------------------------8888888888888888-|
D|-99999999-55555555-6666666666666666-99999999-55555555-8888888888888888-|
A|-99999999-55555555-7777777777777777-99999999-55555555-6666666666666666-|
E|-99999999-55555555-6666666666666666-99999999-55555555------------------|

Chorus - Part 2 - Guitar 2
e|-----------------------------------------------------------------------|
B|-----------------------------------------------------------------------|
G|-----------------------------------------------------------------------|
D|-99999999-55555555-6666666666666666-99999999-55555555-1111111111111111-|
A|-99999999-55555555-7777777777777777-99999999-55555555-1111111111111111-|
E|-99999999-55555555-6666666666666666-99999999-55555555-1111111111111111-|




Outro - repeats many different parts of the song and adds
e|-7/14~--------------|
B|-------13/12-11~-8~-|
G|--------------------|
D|--------------------| Repeat once more
A|--------------------|
E|--------------------|




There you go 100% correct!
Tap to rate this tab
# A B C D E F G H I J K L M N O P Q R S T U V W X Y Z