Song name
# A B C D E F G H I J K L M N O P Q R S T U V W X Y Z

Tokio Hotel - Phantomrider tab

Intro
E|------------------------------------------|
B|------------------------------------------|
G|------------------------------------------|
D|-2-----2-----2---3-----3-----3------------|  X2
A|-0-0-0-0-0-0-0-0-1-1-1-1-1-1-1-1----------|
E|------------------------------------------|

		Verse 1
E|----------------------------------------------|
B|----------------------------------------------|
G|----------------------------------------------|   X3
D|-2-----2-----2---3-----3-----3----------------|
A|-0-0-0-0-0-0-0-0-1-1-1-1-1-1-1-(0)------------|
E|----------------------------------------------|
   GAS   	&	 BLOOD
 IS 	ALL 	IíVE	  GOT
IN YOU 	I  		TRUST

E|-----------------------------------------|
B|-----------------------------------------|
G|-----------------------------------------| 	  X1
D|-----------------------------------------|
A|-3-----3-----3---3-----3-----3-----------|
E|-1-1-1-1-1-1-1-1-0-0-0-0-0-0-0-0---------|
THE FINAL EXITíS PASSINí BY


E|------------------------------------------|
B|------------------------------------------|
G|------------------------------------------|
D|-2-----2-----2---3-----3-----3------------|    X3
A|-0-0-0-0-0-0-0-0-1-1-1-1-1-1-1-0----------|
E|------------------------------------------|
THE 	WHEELS		 RUN	 FREE
	UNDERRRRRRRRRR 		ME
ITíS YOU 	I 	FEEL

E|-----------------------------------------|
B|-----------------------------------------|
G|-----------------------------------------|
D|-----------------------------------------|
A|-3-----3-----3---3-----3-----3-----------|
E|-1-1-1-1-1-1-1-1-0-0-0-0-0-0-0-0---------|
A MILLION SPARKS ARE FALLINí DOWN

E|------------------------------------------|
B|------------------------------------------|
G|------------------------------------------|
D|-2-----2-----2---3-----3-----3------------|
A|-0-0-0-0-0-0-0-0-1-1-1-1-1-1-1------------|
E|------------------------------------------|
	I TURN THE WHEEL AROUND

		Chorus
E|-----------------------------------------------------------|
B|-----------------------------------------------------------|
G|-5-5-5-5-5-5---------------3-3-3-3-3-3---------------------|
D|-5-5-5-5-5-5--5-5-5-5-5-5--3-3-3-3-3-3--3-3-3-3-3-3--------|
A|-3-3-3-3-3-3--5-5-5-5-5-5--1-1-1-1-1-1--3-3-3-3-3-3--------|
E|-----------------3-3-3-3-3-3---------------1-1-1-1-1-1-----|

Kiss me goodbye Into the Light
Like a phantom rider I'm dying tonight
So dark and cold I drive alone
Like a phantom rider can't make it all on my own

         		Verse 2
E|----------------------------------------------|
B|----------------------------------------------|
G|----------------------------------------------|   X3
D|-2-----2-----2---3-----3-----3----------------|
A|-0-0-0-0-0-0-0-0-1-1-1-1-1-1-1-(0)------------|
E|----------------------------------------------|
PROMISES
I SCRATCHED		 SO DEEP
IN 	YOUR 		EMPTY	 SEAT

E|-----------------------------------------|
B|-----------------------------------------|
G|-----------------------------------------| 	  X1
D|-----------------------------------------|
A|-3-----3-----3---3-----3-----3-----------|
E|-1-1-1-1-1-1-1-1-0-0-0-0-0-0-0-0---------|
THE SKY IS TURNINí UPSIDE DOWN

E|------------------------------------------|
B|------------------------------------------|
G|------------------------------------------|
D|-2-----2-----2---3-----3-----3------------|    X1
A|-0-0-0-0-0-0-0-0-1-1-1-1-1-1-1-0----------|
E|------------------------------------------|
I TURN THE WHEEL AROUND

		chorus
E|-----------------------------------------------------------|
B|-----------------------------------------------------------|
G|-5-5-5-5-5-5---------------3-3-3-3-3-3---------------------|
D|-5-5-5-5-5-5--5-5-5-5-5-5--3-3-3-3-3-3--3-3-3-3-3-3--------|
A|-3-3-3-3-3-3--5-5-5-5-5-5--1-1-1-1-1-1--3-3-3-3-3-3--------|
E|-----------------3-3-3-3-3-3---------------1-1-1-1-1-1-----|
Kiss me goodbye Into the Light
Like a phantom rider I'm dying tonight
So dark and cold I drive alone
Like a phantom rider can't make it all on my own

E|-------------10---8-------------------10---8---------------------|
B|-6-5-8-6-5-6----6---6-5-6-6-5-8-6-5-6----6---6-5-6---------------|
G|-----------------------------------------------------------------|
D|-----------------------------------------------------------------|    X2
A|-----------------------------------------------------------------|
E|-----------------------------------------------------------------|

E|-----------------10---8-------------------10---8-----------------|
B|-6-5-8-6-5-6----6---6-5-6-6-5-8-6-5-6----6---6-5-6---------------|
G|-----------------------------------------------------------------|
D|-----------------------------------------------------------------|    X2
A|-----------------------------------------------------------------|
E|-----------------------------------------------------------------|
	DONíT KNOW YOUR NAME I STILL BELIEVE
NOW ITíS TIME FOR YOU & ME            TIME FOR YOU & ME


E|---------------------------------------------------------------|
B|--5--/1---5---/1------------5--/1--5--/1-----------------------|
G|-------------------2----3-----------------2---3~---------------|
D|---------------------3----3-----------------3------------------|
A|---------------------------------------------------------------|
E|---------------------------------------------------------------|

E|--------------------------------------------------------------------|
B|--------------------------------------------------------------------|
G|-2--3ó-2--3----------------------22222222-33333333------------------|
D|-2--3ó-2--3----33333333-33333333-22222222-33333333------------------|
A|-0--1--0--1----33333333-33333333-00000000-11111111------------------|
E|---------------11111111-00000000------------------------------------|


Now Iím Here, No More Fears
Angel, don't you cry, I'll meet you on the other side

		chorus
E|-------------------------------------------------------------------------|
B|-------------------------------------------------------------------------|
G|-5555555555555555------------------3333333333333333----------------------| x4(until end)
D|-5555555555555555-5555555555555555-3333333333333333-3333333333333333-----|
A|-3333333333333333-5555555555555555-1111111111111111-3333333333333333-----|
E|------------------3333333333333333------------------1111111111111111-----|

Goodbye, Into the light
	 Like a phantom rider  I'm dying tonight
So dark and cold I drive alone
	 Like a phantiomrider
Can't make it all on my own
Hey! I'm here With you
I am here, here
Leave me alone
Phantom rider
Always die on their own
Tap to rate this tab
 
# A B C D E F G H I J K L M N O P Q R S T U V W X Y Z