Song name
# A B C D E F G H I J K L M N O P Q R S T U V W X Y Z

Tokio Hotel - Live Every Second tab

-----------------------------------------------------------------------------
                        LIVE EVERY SECOND - Tokio Hotel
-----------------------------------------------------------------------------

I couldn't watch any more people post wrong tabs of this ridiculously easy song, 
so I did one myself

e-mail: xcandyrock@gmail.com

Tuning: Drop C# (tune your guitar 1 step down, then tune the E-string to C#)

INTRO
D#|--------------------------|
A#|--------------------------|
F#|--------------------------|
C#|-5555555------------------| x10
G#|-5555555------------------|
C#|-5555555--4b-0-0-3b-0-0-0-|


VERSE
D#|----------------------------------------|
A#|----------------------------------------|
F#|----------------------------------------|
C#|-10-10-10--7-77--10-10-10--7-77-2222222-| x4
G#|-10-10-10--7-77--10-10-10--7-77-2222222-|    
C#|-10-10-10--7-77--10-10-10--7-77-2222222-|

D#|----------------------------------------|
A#|----------------------------------------|
F#|----------------------------------------|
C#|-10-10-10--7-77--10-10-10--7-77---------| 
G#|-10-10-10--7-77--10-10-10--7-77---------|    
C#|-10-10-10--7-77--10-10-10--7-77---------|

CHORUS
D#|----------------------------------------------------------|
A#|----------------------------------------------------------|
F#|----------------------------------------------------------|
C#|-55555555-55555555-10-10-10-10-10-10-10-10-10-10-10-10-10-|
G#|-55555555-55555555-10-10-10-10-10-10-10-10-10-10-10-10-10-|
C#|-55555555-44444444-10-10-10-10-10-10-10-10-10-10-10-10-10-| 

D#|-----------------------------------------------------|
A#|-----------------------------------------------------|
F#|-----------------------------------------------------|
C#|-55555555-55555555-22222222--10-10-10-10-10-10-10-10-|
G#|-55555555-55555555-22222222--10-10-10-10-10-10-10-10-|
C#|-55555555-44444444-22222222--9--9--9--10-10-10-9--9--| 

D#|----------------------------------------------------------|
A#|----------------------------------------------------------|
F#|----------------------------------------------------------|
C#|-55555555-55555555-10-10-10-10-10-10-10-10-10-10-10-10-10-|
G#|-55555555-55555555-10-10-10-10-10-10-10-10-10-10-10-10-10-|
C#|-55555555-44444444-9--9--9--9--9--9--9--9--10-10-10-9--9--| 

D#|------------------------------------| 
A#|------------------------------------|
F#|-99999999-77777777-8888888-10-7--10-|
C#|-99999999-77777777-8888888-10-7--10-|
G#|-77777777-55555555-6666666-8--5--8--|
C#|------------------------------------|

POST-CHORUS
D#|--------------------------|
A#|--------------------------|
F#|--------------------------|
C#|-5555555------------------| x2
G#|-5555555------------------|
C#|-5555555--4b-0-0-3b-0-0-0-|

D#|----------------------------------------|
A#|----------------------------------------|
F#|----------------------------------------|
C#|-10-10-10--7-77--10-10-10--7-77-2222222-|
G#|-10-10-10--7-77--10-10-10--7-77-2222222-|    
C#|-10-10-10--7-77--10-10-10--7-77-2222222-|

VERSE
D#|----------------------------------------|
A#|----------------------------------------|
F#|----------------------------------------|
C#|-10-10-10--7-77--10-10-10--7-77-2222222-| x3
G#|-10-10-10--7-77--10-10-10--7-77-2222222-|    
C#|-10-10-10--7-77--10-10-10--7-77-2222222-|

D#|----------------------------------------|
A#|----------------------------------------|
F#|----------------------------------------|
C#|-10-10-10--7-77--10-10-10--7-77---------| 
G#|-10-10-10--7-77--10-10-10--7-77---------|    
C#|-10-10-10--7-77--10-10-10--7-77---------|

CHORUS
D#|----------------------------------------------------------|
A#|----------------------------------------------------------|
F#|----------------------------------------------------------|
C#|-55555555-55555555-10-10-10-10-10-10-10-10-10-10-10-10-10-|
G#|-55555555-55555555-10-10-10-10-10-10-10-10-10-10-10-10-10-|
C#|-55555555-44444444-10-10-10-10-10-10-10-10-10-10-10-10-10-| 

D#|-----------------------------------------------------|
A#|-----------------------------------------------------|
F#|-----------------------------------------------------|
C#|-55555555-55555555-22222222--10-10-10-10-10-10-10-10-|
G#|-55555555-55555555-22222222--10-10-10-10-10-10-10-10-|
C#|-55555555-44444444-22222222--9--9--9--10-10-10-9--9--| 

D#|----------------------------------------------------------|
A#|----------------------------------------------------------|
F#|----------------------------------------------------------|
C#|-55555555-55555555-10-10-10-10-10-10-10-10-10-10-10-10-10-|
G#|-55555555-55555555-10-10-10-10-10-10-10-10-10-10-10-10-10-|
C#|-55555555-44444444-9--9--9--9--9--9--9--9--10-10-10-9--9--| 

D#|------------------------------------| 
A#|------------------------------------|
F#|-99999999-77777777-8888888-10-7--10-|
C#|-99999999-77777777-8888888-10-7--10-|
G#|-77777777-55555555-6666666-8--5--8--|
C#|------------------------------------|

BRIDGE
D#|---------------------|
A#|---------------------|
F#|---------------------|
C#|-5-5-5555555555555---| x2
G#|-5-5-5555555555555---|
C#|-4-5-5555555555555---|

D#|--------------------------|
A#|--------------------------|
F#|-------------8888-10-7-10-|
C#|-5-5-5555555-8888--x-x--x-|
G#|-5-5-5555555-6666--8-5--8-|
C#|-4-5-5555555--------------|

D#|--------------------------|
A#|--------------------------|
F#|--------------------------|
C#|-5555555------------------| x5
G#|-5555555------------------|
C#|-5555555--4b-0-0-3b-0-0-0-|
p.m...........................


CHORUS
D#|----------------------------------------------------------|
A#|----------------------------------------------------------|
F#|----------------------------------------------------------|
C#|-55555555-55555555-10-10-10-10-10-10-10-10-10-10-10-10-10-|
G#|-55555555-55555555-10-10-10-10-10-10-10-10-10-10-10-10-10-|
C#|-55555555-44444444-10-10-10-10-10-10-10-10-10-10-10-10-10-| 

D#|-----------------------------------------------------|
A#|-----------------------------------------------------|
F#|-----------------------------------------------------|
C#|-55555555-55555555-22222222--10-10-10-10-10-10-10-10-|
G#|-55555555-55555555-22222222--10-10-10-10-10-10-10-10-|
C#|-55555555-44444444-22222222--9--9--9--10-10-10-9--9--| 

D#|----------------------------------------------------------|
A#|----------------------------------------------------------|
F#|----------------------------------------------------------|
C#|-55555555-55555555-10-10-10-10-10-10-10-10-10-10-10-10-10-|
G#|-55555555-55555555-10-10-10-10-10-10-10-10-10-10-10-10-10-|
C#|-55555555-44444444-9--9--9--9--9--9--9--9--10-10-10-9--9--| 

D#|------------------------------------| 
A#|------------------------------------|
F#|-99999999-77777777-8888888-10-7--10-|
C#|-99999999-77777777-8888888-10-7--10-|
G#|-77777777-55555555-6666666-8--5--8--|
C#|------------------------------------|
OUTRO
D#|--------------------------|
A#|--------------------------|
F#|--------------------------|
C#|-5555555------------------| x10
G#|-5555555------------------|
C#|-5555555--4b-0-0-3b-0-0-0-|
Tap to rate this tab
 
# A B C D E F G H I J K L M N O P Q R S T U V W X Y Z