Song name
# A B C D E F G H I J K L M N O P Q R S T U V W X Y Z

Tokio Hotel - Traumer tab

----------------------------------------------------------------------------
			     Traumer - Tokio Hotel
----------------------------------------------------------------------------


Tabbed by:XxGuitarZer0xX

Email:Spongebobs400s@hotmail.com

Tuning:Standard


This was all tabbed by ear.
I think there are no mistakes!







Intro - one guitar only
e|---------------------------------------------------|
B|---12-12-11-11-----12-12-11-11-9---9---9-----------|
G|-------------------------------x---------8---8---8-|
D|-8~--------------11~-----------6-6---6---x---------| 
A|-----------------------------------------6-6---6---| 
E|---------------------------------------------------|


Chords - D# - F - Bb - G#


Verse 1 - Guitar 1
e|---------------------------------------------------|
B|---12-12-11-11-----12-12-11-11-9---9---9-----------|
G|-------------------------------x---------8---8---8-|
D|-8~--------------11~-----------6-6---6---x---------| Repeat
A|-----------------------------------------6-6---6---| 
E|---------------------------------------------------|

Verse 1 - Guitar 2
e|--------------|
B|--------------|
G|-8~-11~-3~-6~-|
D|-8~-11~-3~-6~-| Repeat 
A|-6~-9-~-1~-4~-|
E|--------------|


Chords - D# - F - Bb - G#


Chorus 1 - Guitar 1 (Flanger or Phaser effect) Lyrics - Love and death....
e|-----------------------------|
B|-----------------------------|
G|-888888-666666---------------|
D|-888888-666666-666666-444444-| Repeat once more
A|-666666-444444-666666-444444-|
E|---------------444444-222222-|

Chorus 1 - Guitar 2 (Distortion)
e|------------------------------------|
B|------------------------------------|
G|-8-x8-x8-6-x6-x6--------------------|
D|-8-x8-x8-6-x6-x6-6-x6-x6-4-x4-x4-4~-| repeat once more
A|-6-x6-x6-4-x4-x4-6-x6-x6-4-x4-x4-4~-|
E|-----------------4-x4-x4-2-x2-x2-2~-|


Chords - D# - C# - G# - F


Post Chorus - Both Guitars - Lyrics - WITH MY HEART!
e|---------------------------------|
B|---------------------------------|
G|-8-x8-x8---------4-x4-x4---------|
D|-8-x8-x8-4-x4-x4-4-x4-x4-6-x6-x6-| Repeat once more
A|-6-x6-x6-4-x4-x4-2-x2-x2-6-x6-x6-|
E|---------2-x2-x2---------4-x4-x4-|


Chords - D# - F - B - G#


Verse 2 - Guitar 1
e|---------------------------------------------------|
B|---12-12-11-11-----12-12-11-11-8---9---9-----------|
G|-------------------------------x---------8---8---8-|
D|-8~--------------11~-----------6-6---6---x---------| Repeat
A|-----------------------------------------6-6---6---| 
E|---------------------------------------------------|

Verse 2 - Guitar 2
e|--------------|
B|--------------|
G|-8~-11~-3~-6~-|
D|-8~-11~-3~-6~-| Repeat 
A|-6~-9-~-1~-4~-|
E|--------------|


Chords - D# - F - Bb - G#


Chorus 2 - Guitar 1 (Flanger or Phaser effect) Lyrics - Love and death....
e|-----------------------------|
B|-----------------------------|
G|-888888-666666---------------|
D|-888888-666666-666666-444444-| Repeat once more
A|-666666-444444-666666-444444-|
E|---------------444444-222222-|

Chorus 2 - Guitar 2 (Distortion)
e|------------------------------------|
B|------------------------------------|
G|-8-x8-x8-6-x6-x6--------------------|
D|-8-x8-x8-6-x6-x6-6-x6-x6-4-x4-x4-4~-| repeat once more
A|-6-x6-x6-4-x4-x4-6-x6-x6-4-x4-x4-4~-|
E|-----------------4-x4-x4-2-x2-x2-2~-|


Chords - D# - C# - G# - F


Post Chorus - Both Guitars - Lyrics - WITH MY HEART!
e|---------------------------------|
B|---------------------------------|
G|-8-x8-x8---------4-x4-x4---------|
D|-8-x8-x8-4-x4-x4-4-x4-x4-6-x6-x6-| Repeat once more
A|-6-x6-x6-4-x4-x4-2-x2-x2-6-x6-x6-|
E|---------2-x2-x2---------4-x4-x4-|


Chords - D# - F - B - G#


Bridge - Both Guitars  Lyrics - All the pain that we've been through
e|----------------------------------------|
B|----------------------------------------|
G|-8888-6666-----------8888-6666----------|
D|-8888-6666-6666-4444-8888-6666-66666666-| Repeat 
A|-6666-4444-6666-4444-6666-4444-66666666-|
E|-----------4444-2222-----------44444444-|


Chords - D# - C# - G# - F - D# - C# - G# 


Slow part - one guitar only
e|-------------------------------------------|
B|---12-12-11-11-----12-12-11-11-8---9-------|
G|-------------------------------x---------8-|
D|-8~--------------11~-----------6-6---6---x-| 
A|-----------------------------------------6-| 
E|-------------------------------------------|


No Chords


Pre Chorus - Both Guitars Lyrics - WITH MY HEART!
e|---------------------------------|
B|---------------------------------|
G|-8-x8-x8---------4-x4-x4---------|
D|-8-x8-x8-4-x4-x4-4-x4-x4-6-x6-x6-| Repeat once more
A|-6-x6-x6-4-x4-x4-2-x2-x2-6-x6-x6-|
E|---------2-x2-x2---------4-x4-x4-|


Chords - D# - F - B - G#


Chorus 3 - Guitar 1 (Flanger or Phaser effect) Lyrics - Love and death....
e|-----------------------------|
B|-----------------------------|
G|-888888-666666---------------|
D|-888888-666666-666666-444444-| Repeat once more
A|-666666-444444-666666-444444-|
E|---------------444444-222222-|

Chorus 3 - Guitar 2 (Distortion)
e|------------------------------------|
B|------------------------------------|
G|-8-x8-x8-6-x6-x6--------------------|
D|-8-x8-x8-6-x6-x6-6-x6-x6-4-x4-x4-4~-| repeat once more
A|-6-x6-x6-4-x4-x4-6-x6-x6-4-x4-x4-4~-|
E|-----------------4-x4-x4-2-x2-x2-2~-|


Chords - D# - C# - G# - F


Outro
e|-----------------------------------------------------|
B|-----------------------------------------------------|
G|-----------------------------------------------------|
D|--------------4~-----------4~-----------4~-----------|
A|-6~-6-4h6-4h6--6-6-4h6-4h6--6-6-4h6-4h6--6-6-4h6-4h6-|
E|-----------------------------------------------------|
~ means slight bend then hit the 6 on the A string.
Tap to rate this tab
 
# A B C D E F G H I J K L M N O P Q R S T U V W X Y Z