Song name
# A B C D E F G H I J K L M N O P Q R S T U V W X Y Z

Tokio Hotel - Sonnensystem tab

----------------------------------------------------------------------------
                          Sonnensystem - Tokio Hotel
----------------------------------------------------------------------------
Tabbed by:XxGuitarZer0xX

Email:Spongebobs400s@hotmail.com

Tuning:Standard

THIS IS ALL YOU NEED TO PLAY THE SONG.
JUST USE YOUR BRAIN AND PUT THINGS IN THE CORRECT ORDER.

Intro -
e|---------------------------------|
B|---------------------------------|
G|---------------------------------|
D|-3h4-4-4-4-----------------------| repeat once more
A|-----------4h6-6-6-6-------------|
E|---------------------4h6-6-6-6-6-|




Verse - 
e|---------------------------------|
B|---------------------------------|
G|---------------------------------|
D|-3h4-4-4-4-----------------------| repeat until chorus
A|-----------4h6-6-6-6-------------|
E|---------------------4h6-6-6-6-6-|





Chorus -
e|--------------------------------------------|
B|--------------------------------------------|
G|-10/11-11-11-11-6/8-8-8-8-------------------| Repeat as many times as
D|-10/11-11-11-11-6/8-8-8-8-6/8-8-8-8-8-8-8-8-|
A|-8-/9--9--9--9--4/6-6-6-6-6/8-8-8-8-8-8-8-8-|
E|--------------------------4/6-6-6-6-6-6-6-6-|




Verse - 
e|---------------------------------|
B|---------------------------------|
G|---------------------------------|
D|-3h4-4-4-4-----------------------| repeat until chorus
A|-----------4h6-6-6-6-------------|
E|---------------------4h6-6-6-6-6-|





Chorus -
e|--------------------------------------------|
B|--------------------------------------------|
G|-10/11-11-11-11-6/8-8-8-8-------------------| Repeat as many times as
D|-10/11-11-11-11-6/8-8-8-8-6/8-8-8-8-8-8-8-8-|
A|-8-/9--9--9--9--4/6-6-6-6-6/8-8-8-8-8-8-8-8-|
E|--------------------------4/6-6-6-6-6-6-6-6-|





Bridge -
e|-----------------------------------------------------------------|
B|-----------------------------------------------------------------|
G|--------------------8~----------8~----------8~----------8~-------|
D|-4~-6~-8~-10/8/6/4~-8~-8~-6~-4~-8~-8~-6~-4~-8~-8~-6~-4~-8~-8~-6~-|
A|-4~-6~-8~-10/8/6/4~-6~-8~-6~-4~-6~-8~-6~-4~-6~-8~-6~-4~-6~-8~-6~-|
E|-2~-4~-6~-8-/6/4/2~----6~-4~-2~----6~-4~-2~----6~-4~-2~----6~-4~-|





Verse - 
e|---------------------------------|
B|---------------------------------|
G|---------------------------------|
D|-3h4-4-4-4-----------------------| repeat until chorus
A|-----------4h6-6-6-6-------------|
E|---------------------4h6-6-6-6-6-|





Chorus -
e|--------------------------------------------|
B|--------------------------------------------|
G|-10/11-11-11-11-6/8-8-8-8-------------------| Repeat as many times as
D|-10/11-11-11-11-6/8-8-8-8-6/8-8-8-8-8-8-8-8-|
A|-8-/9--9--9--9--4/6-6-6-6-6/8-8-8-8-8-8-8-8-|
E|--------------------------4/6-6-6-6-6-6-6-6-|



============================================================================
Tap to rate this tab
# A B C D E F G H I J K L M N O P Q R S T U V W X Y Z