Song name
# A B C D E F G H I J K L M N O P Q R S T U V W X Y Z

Tokio Hotel - Lass Uns Laufen tab

----------------------------------------------------------------------------
			    Lass uns laufen - Tokio Hotel
-----------------------------------------------------------------------------

Tabbed by:XxGuitarZer0xX

Email:Spongebobs400s@hotmail.com

Tuning:Standard

100% correct! from (HUMANOID)



Intro - Guitar 1
e|------------------------------------|
B|------------------------------------|
G|-5-4---------------5-4--------------|
D|-----5-3-2-3-5-5~------5-3-2-3-5-5~-|
A|------------------------------------|
E|------------------------------------|




Verse 1 - Guitar 1
e|------------------------------------------------------------------------|
B|------------------------------------------------------------------------|
G|-5-4---------------5-4---------------7-----------------5-4--------------|
D|-----5-3-2-3-5-5~------5-3-2-3-5-5~----8-------------------5-3-2-3-5-5~-|
A|-----------------------------------------10-8-5-6-8-8~------------------|
E|------------------------------------------------------------------------|

Repeat this whole thing one more time before Chorus



Chorus (part 1) - Guitar 1
e|---------------------------------------------------------------------|
B|---------------------------------------------------------------------|
G|-5555555555555555-2222222222222222------------------5555555555555555-|
D|-5555555555555555-2222222222222222-3333333333333333-5555555555555555-|
A|-3333333333333333-0000000000000000-3333333333333333-3333333333333333-|
E|-----------------------------------1111111111111111------------------|

Chorus (part 2) - Guitar 2
e|-------------------------------------------------------|
B|-------------------------------------------------------|
G|-5555555555555555-2222222222222222------------------5~-|
D|-5555555555555555-2222222222222222-3333333333333333-5~-|
A|-3333333333333333-0000000000000000-3333333333333333-3~-|
E|-----------------------------------1111111111111111----|

Chorus (part 1 and 2)- Guitar 2
e|-0~-0~-1~-0~-0~-0~-1~-0~-|
B|-1~-1~-1~-1~-1~-1~-1~-1~-|
G|-0~-2~-2~-0~-0~-2~-2~-0~-|
D|-2~-2~-3~-2~-2~-2~-3~-2~-|
A|-3~-0~-3~-3~-3~-0~-3~-3~-|
E|-------1~----------1~----|


Verse 2 - Guitar 1
e|------------------------------------------------------------------------|
B|------------------------------------------------------------------------|
G|-5-4---------------5-4---------------7-----------------5-4--------------|
D|-----5-3-2-3-5-5~------5-3-2-3-5-5~----8-------------------5-3-2-3-5-5~-|
A|-----------------------------------------10-8-5-6-8-8~------------------|
E|------------------------------------------------------------------------|



Pre Chorus - Guitar 1 - kinda tricky to execute but is do-able
e|------------------------------------------------------------------|
B|-1-1-1-1-0-0-0-0-0-0-0-0-1-1-3-3-1-1-1-1-0-0-0-0-0-0-0-0-1-1-3-3--|
G|--2-2-2-2-0-0-0-0-2-2-2-2-2-2-2-2-2-2-2-2-0-0-0-0-2-2-2-2-2-2-2-2-|
D|------------------------------------------------------------------|
A|------------------------------------------------------------------|
E|------------------------------------------------------------------|




Chorus (part 1) - Guitar 1
e|---------------------------------------------------------------------|
B|---------------------------------------------------------------------|
G|-5555555555555555-2222222222222222------------------5555555555555555-|
D|-5555555555555555-2222222222222222-3333333333333333-5555555555555555-|
A|-3333333333333333-0000000000000000-3333333333333333-3333333333333333-|
E|-----------------------------------1111111111111111------------------|

Chorus (part 2) - Guitar 2
e|-------------------------------------------------------|
B|-------------------------------------------------------|
G|-5555555555555555-2222222222222222------------------5~-|
D|-5555555555555555-2222222222222222-3333333333333333-5~-|
A|-3333333333333333-0000000000000000-3333333333333333-3~-|
E|-----------------------------------1111111111111111----|

Chorus (part 1 and 2)- Guitar 2
e|-0~-0~-1~-0~-0~-0~-1~-0~-|
B|-1~-1~-1~-1~-1~-1~-1~-1~-|
G|-0~-2~-2~-0~-0~-2~-2~-0~-|
D|-2~-2~-3~-2~-2~-2~-3~-2~-|
A|-3~-0~-3~-3~-3~-0~-3~-3~-|
E|-------1~----------1~----|



Post Chorus - Guitar 1 and 2
e|-0~-0~-|
B|-1~-1~-|
G|-0~-0~-|
D|-2~-2~-|
A|-3~-3~-|
E|-------|




Bridge (part 1)- Guitar 1
e|---------------------------------------------------------------------|
B|---------------------------------------------------------------------|
G|-1414141414141414-9999999999999999-1212121212121212-1010101010101010-|
D|-xxxxxxxxxxxxxxxx-xxxxxxxxxxxxxxxx-xxxxxxxxxxxxxxxx-x-x-x-x-x-x-x-x--|
A|-1212121212121212-7777777777777777-1010101010101010-8-8-8-8-8-8-8-8--|
E|---------------------------------------------------------------------|

Bridge (part 2) - Guitar 1
e|--------------------------------------------------------------------|
B|--------------------------------------------------------------------|
G|-1414141414141414-9999999999999999-12121212121212121212121212121212-|
D|-xxxxxxxxxxxxxxxx-xxxxxxxxxxxxxxxx-xxxxxxxxxxxxxxxxxxxxxxxxxxxxxxxx-|
A|-1212121212121212-7777777777777777-10101010101010101010101010101010-|
E|--------------------------------------------------------------------|




Take Me There (Chorus) - Guitar 1 and 2
e|-----------------------------------------------------|
B|-----------------------------------------------------|
G|-5555555555555555-2222222222222222-------------------|
D|-5555555555555555-2222222222222222-3333333333333333--|
A|-3333333333333333-0000000000000000-3333333333333333--|
E|-----------------------------------1111111111111111--|




Solo - Guitar 1
e|------------------------------------------------------|
B|------------------------------------------------------|
G|-12/9-12/9/10--12/9-12/9-9-10101010-12121212-14141414-|
D|-xx-x-xx-x/x---xx-x-xx-x-x-x-x-x-x--xxxxxxxx-xxxxxxxx-|
A|-10/7-10/7/8---10/7-10/7-7-8-8-8-8--10101010-12121212-|
E|------------------------------------------------------|
     /\
     || 
Softly played Before solo.




Outro - Guitar 2
e|-------------------------------------------------------|
B|-------------------------------------------------------|
G|-5555555555555555-2222222222222222------------------5~-|
D|-5555555555555555-2222222222222222-3333333333333333-5~-|
A|-3333333333333333-0000000000000000-3333333333333333-3~-|
E|-----------------------------------1111111111111111----|

Outro - Guitar 2
e|-0~-0~-1~-0~-|
B|-1~-1~-1~-1~-|
G|-0~-2~-2~-0~-|
D|-2~-2~-3~-2~-|
A|-3~-0~-3~-3~-|
E|-------1~----|
Tap to rate this tab
 
# A B C D E F G H I J K L M N O P Q R S T U V W X Y Z