Song name
# A B C D E F G H I J K L M N O P Q R S T U V W X Y Z

Tokio Hotel - Komm tab

-----------------------------------------------------------------------------
			     Komm - Tokio Hotel 
-----------------------------------------------------------------------------

Tabbed by:XxGuitarZer0xX

Email:Spongebobs400s@hotmail.com

Tuning:Standard


100% correct, Tabbed by ear. 
Scroll to the bottom of the page if you get stuck, I got some quick info down there to help you.




Intro - Guitar 1
e|--------------------|
B|--------------------|
G|-4/7/9~~~~~~-7~~~~~-|
D|--------------------| Repeats through out the whole song
A|--------------------|
E|--------------------|


Guitar - 2
e|--------------|
B|----------17~-|
G|-16-19-16-----|
D|--------------| Repeat 7 times
A|--------------|
E|--------------|


Guitar 3
e|-------------------------------------|
B|-------------------------------------|
G|-99999999-44444444----------22222222-|
D|-99999999-44444444-55555555-22222222-|
A|-77777777-22222222-55555555-00000000-|
E|-------------------33333333----------|




Verse 1 (part 1) - Guitar 1 follows bass line every note is palm muted
e|---------------------------------------------------------------------------|
B|---------------------------------------------------------------------------|
G|---------------------------------------------------------------------------|
D|---------------------------------------------------------------------------| Repeat
A|-7-777-77777-777-777-77777-------------------------------------------------|
E|---------------------------7-777-77777-8-888-88888-5-555-55555-3-333-33333-|

Verse 1 (part 2)- Comes after the repeat
e|--------------------------|
B|--------------------------|
G|--------------------------|
D|--------------------------|
A|-333-333-333-33333-333-5~-|
E|--------------------------|



Chorus (part 1) - Guitar 1 and 3
e|-------------------------------------|
B|-------------------------------------|
G|-99999999-44444444----------22222222-|
D|-99999999-44444444-55555555-22222222-| Repeat 1 more time
A|-77777777-22222222-55555555-00000000-|
E|-------------------33333333----------|

Chorus (part 2) - Guitar 1 and 3
e|-------------------|
B|-------------------|
G|-55555555-77777777-|
D|-55555555-77777777-|
A|-33333333-55555555-|
E|-------------------|

Chorus - Guitar 2
e|--------------|
B|----------17~-|
G|-16-19-16-----|
D|--------------| Repeat many times
A|--------------|
E|--------------|





Verse 2 (part 1) - Guitar 1 follows bass line every note is palm muted
e|---------------------------------------------------------------------------|
B|---------------------------------------------------------------------------|
G|---------------------------------------------------------------------------|
D|---------------------------------------------------------------------------| Repeat
A|-7-777-77777-777-777-77777-------------------------------------------------|
E|---------------------------7-777-77777-8-888-88888-5-555-55555-3-333-33333-|

Verse 2 (part 2)- Comes after the repeat
e|--------------------------|
B|--------------------------|
G|--------------------------|
D|--------------------------|
A|-333-333-333-33333-333-5~-|
E|--------------------------|





Chorus (part 1) - Guitar 1 and 3
e|-------------------------------------|
B|-------------------------------------|
G|-99999999-44444444----------22222222-|
D|-99999999-44444444-55555555-22222222-| Repeat 1 more time
A|-77777777-22222222-55555555-00000000-|
E|-------------------33333333----------|

Chorus (part 2) - Guitar 1 and 3
e|-------------------|
B|-------------------|
G|-55555555-77777777-|
D|-55555555-77777777-|
A|-33333333-55555555-|
E|-------------------|

Chorus - Guitar 2
e|--------------|
B|----------17~-|
G|-16-19-16-----|
D|--------------| Repeat many times
A|--------------|
E|--------------|




Bridge - Guitar 1
e|-----------------------------------------------------|
B|-----------------------------------------------------|
G|-99999999-77777777-1414141414141414-1717171717171717-|
D|-xxxxxxxx-xxxxxxxx-xxxxxxxxxxxxxxxx-xxxxxxxxxxxxxxxx-| Repeat 3 more times
A|-77777777-55555555-1212121212121212-1515151515151515-|
E|-----------------------------------------------------|
These are twelves and fourteens and sixteens just so you know

Bridge - Guitar 2 and 3
e|---------------------------------------------|
B|---------------------------------------------|
G|-99999999-77777777---------------------------|
D|-99999999-77777777-77777777-1010101010101010-| Repeat 3 more times
A|-77777777-55555555-77777777-1010101010101010-|
E|-------------------55555555-8-8-8-8-8-8-8-8--|





Chorus (part 1) - Guitar 1 and 3
e|-------------------------------------|
B|-------------------------------------|
G|-99999999-44444444----------22222222-|
D|-99999999-44444444-55555555-22222222-| Repeat 1 more time
A|-77777777-22222222-55555555-00000000-|
E|-------------------33333333----------|

Chorus (part 2) - Guitar 1 and 3
e|-------------------|
B|-------------------|
G|-55555555-77777777-|
D|-55555555-77777777-|
A|-33333333-55555555-|
E|-------------------|

Chorus - Guitar 2
e|--------------|
B|----------17~-|
G|-16-19-16-----|
D|--------------| Repeat many times
A|--------------|
E|--------------|





QUICK INFO _ 

If you get stuck remember that these parts repeat and can be used at almost any time

e|--------------|
B|----------17~-|
G|-16-19-16-----|
D|--------------| 
A|--------------|
E|--------------|

e|--------------------|
B|--------------------|
G|-4/7/9~~~~~~-7~~~~~-|
D|--------------------| 
A|--------------------|
E|--------------------|

Hope that helps, The whole album will be tabbed soon!
Tap to rate this tab
# A B C D E F G H I J K L M N O P Q R S T U V W X Y Z