Song name
# A B C D E F G H I J K L M N O P Q R S T U V W X Y Z

Tokio Hotel - Attention tab

Tokio Hotel - Attention

e-mail: xcandyrock@gmail.com

tuning: Eb

Intro
Guitar 1
e|-----0------------0--------|
B|-2-3---3--2---2-3---3--2---|
G|---------------------------| x5
D|---------------------------|
A|---------------------------|
E|---------------------------|

guitar 2
e|---------------------------------------|
B|---------------------------------------|
G|---------------------------------------|
D|-4-4--4-4------------------------------| x2
A|-----------5-5--5-5------------7-7-7-7-|
E|---------------------5-5--5-5----------|

guitar 3
e|---------------------------------------|
B|-10~-----9h10p9-10--/10---7---5/7------|
G|---------------------------------------|
D|---------------------------------------|
A|---------------------------------------|
E|---------------------------------------|

Verse
Guitar 1 
e|-------------------------------------|
B|-------------------------------------|
G|-------------------------------------|
D|-2h4-4--2-4-4-4-4--2-2-2-2--2-2-2-2--|
A|-------------------------------------|
E|-------------------------------------|
p.m.....................................

guitar 2
e|---------------------------------------|
B|---------------------------------------|
G|-----------7----7--------------9---9---|
D|-4----4----7----7----7----7----9---9---|
A|-4----4----5----5----7----7----7---7---|
E|-2----2--------------5----5------------|

guitar 1
e|-------------------------------------|
B|-------------------------------------|
G|-2-2-2--2-2-2-2-2--2-2-2-2--4-4-4-4--|
D|-2h4-4--4-4-4-4-4--2-2-2-2--2-2-2-2--|
A|-------------------------------------|
E|-------------------------------------|
p.m....................................

guitar 2
e|---------------------------------------|
B|---------------------------------------|
G|---------------------------------------|
D|----------7-7--7777-----------5-5-5555-|
A|-4-4-4444-5-5--5555-7-7-7777--7-7-7777-|
E|-2-2-2222-----------5-5-5555-----------|


Refrain

oh no.. I'll never let you go

guitar 1
e|-----------------------------------------------------|
B|-----------------------------------------------------|
G|-----------------------------------------------------|
D|--4-4-4-4-4-4--7-7-7-7-7-7--4-4-4-4-4-4--7-7-7-7-7-7-|
A|--2-2-2-2-2-2--5-5-5-5-5-5--2-2-2-2-2-2--5-5-5-5-5-5-|
E|-----------------------------------------------------|
p.m....................................................

guitar 2
e|-----------------------------------------------------|
B|-----------------------------------------------------|
G|--4-4-4-4-4-4--7-7-7-7-7-7--4-4-4-4-4-4--7-7-7-7-7-7-|
D|--4-4-4-4-4-4--7-7-7-7-7-7--4-4-4-4-4-4--7-7-7-7-7-7-|
A|--2-2-2-2-2-2--5-5-5-5-5-5--2-2-2-2-2-2--5-5-5-5-5-5-|
E|-----------------------------------------------------|

guitar 3
e|-------7------------------------7--------------------|
B|------7------------------------7---------------------|
G|-----7------------------------7----------------------|
D|----9------------------------9-----------------------|
A|---9------------------------9------------------------|
E|--7------------------------7-------------------------|


CHORUS

it's not what you said, it's the way you say it
guitar 1
e|-----------------------------------|
B|-----------------------------------|
G|----------7-7-------9-9------------|
D|-4-4------7-7-------9-9-----9-9----|
A|-4-4------5-5-------7-7-----9-9----|
E|-2-2------------------------7-7----|

guitar 2
e|---------------------------------------|
B|---------------------------------------|
G|----------7-7--7777-9-9-9999-----------|
D|-4-4-4444-7-7--7777-9-9-9999--9-9-9999-|
A|-4-4-4444-5-5--5555-7-7-7777--9-9-9999-|
E|-2-2-2222---------------------7-7-7777-|

guitar 3
e|----------------------------7---7---7---7----|
B|------------7---7---7---7-----7---7---7---7--|
G|--7-9-7-6-----6---6---6---6------------------|
D|---------------------------------------------|
A|---------------------------------------------|
E|---------------------------------------------|

e|-------------------7---7----5-4-2-0-2-|
B|---7---7---7---7-----7---7------------|
G|-----6---6---6---6--------------------|
D|--------------------------------------|
A|--------------------------------------|
E|--------------------------------------|


sick and tired of needing your attention..
guitar 1
e|-----------------------------------|
B|-----------------------------------|
G|----------7-7-------9-9------------|
D|-4-4------7-7-------9-9-----9-9----|
A|-4-4------5-5-------7-7-----9-9----|
E|-2-2------------------------7-7----|

guitar 2
e|------------------------------------------|
B|------------------------------------------|
G|----------7-7--7777-9-9-9999------------7-|
D|-4-4-4444-7-7--7777-9-9-9999--9-9-9999--7-|
A|-4-4-4444-5-5--5555-7-7-7777--9-9-9999--5-|
E|-2-2-2222---------------------7-7-7777----|

guitar 3
e|--7-------7-------7-------------------------------|
B|----7---7---7---7---7---7---7---------/10-9-7-----|
G|------9-------9-------9-------6----6----------9-6-|
D|---------------------------------7----------------|
A|--------------------------------------------------|
E|--------------------------------------------------|

Interlude
guitar 3
e|---------------------|
B|-------------7-9--7--|
G|---------6-9---------|
D|-----7-9-------------|
A|-7-9-----------------|
E|---------------------|

Verse
Guitar 1 
e|-------------------------------------|
B|-------------------------------------|
G|-------------------------------------|
D|-2h4-4--2-4-4-4-4--2-2-2-2--2-2-2-2--|
A|-------------------------------------|
E|-------------------------------------|
p.m.....................................

guitar 2
e|---------------------------------------|
B|---------------------------------------|
G|-----------7----7--------------9---9---|
D|-4----4----7----7----7----7----9---9---|
A|-4----4----5----5----7----7----7---7---|
E|-2----2--------------5----5------------|

I swallow the poison...
guitar 1
e|-------------------------------------|
B|-------------------------------------|
G|-2-2-2--2-2-2-2-2--2-2-2-2--4-4-4-4--|
D|-2h4-4--4-4-4-4-4--2-2-2-2--2-2-2-2--|
A|-------------------------------------|
E|-------------------------------------|
p.m....................................

guitar 2
e|---------------------------------------|
B|---------------------------------------|
G|---------------------------------------|
D|----------7-7--7777-----------5-5-5555-|
A|-4-4-4444-5-5--5555-7-7-7777--7-7-7777-|
E|-2-2-2222-----------5-5-5555-----------|


Refrain

oh no.. I'll never let you go
guitar 1
e|-----------------------------------------------------|
B|-----------------------------------------------------|
G|-----------------------------------------------------|
D|--4-4-4-4-4-4--7-7-7-7-7-7--4-4-4-4-4-4--7-7-7-7-7-7-|
A|--2-2-2-2-2-2--5-5-5-5-5-5--2-2-2-2-2-2--5-5-5-5-5-5-|
E|-----------------------------------------------------|
p.m....................................................

guitar 2
e|-----------------------------------------------------|
B|-----------------------------------------------------|
G|--4-4-4-4-4-4--7-7-7-7-7-7--4-4-4-4-4-4--7-7-7-7-7-7-|
D|--4-4-4-4-4-4--7-7-7-7-7-7--4-4-4-4-4-4--7-7-7-7-7-7-|
A|--2-2-2-2-2-2--5-5-5-5-5-5--2-2-2-2-2-2--5-5-5-5-5-5-|
E|-----------------------------------------------------|


CHORUS

it's not what you said, it's the way you say it
guitar 1
e|-----------------------------------|
B|-----------------------------------|
G|----------7-7-------9-9------------|
D|-4-4------7-7-------9-9-----9-9----|
A|-4-4------5-5-------7-7-----9-9----|
E|-2-2------------------------7-7----|

guitar 2
e|---------------------------------------|
B|---------------------------------------|
G|----------7-7--7777-9-9-9999-----------|
D|-4-4-4444-7-7--7777-9-9-9999--9-9-9999-|
A|-4-4-4444-5-5--5555-7-7-7777--9-9-9999-|
E|-2-2-2222---------------------7-7-7777-|

guitar 3
e|----------------------------7---7---7---7----|
B|------------7---7---7---7-----7---7---7---7--|
G|--7-9-7-6-----6---6---6---6------------------|
D|---------------------------------------------|
A|---------------------------------------------|
E|---------------------------------------------|

e|-------------------7---7----5-4-2-0-2-|
B|---7---7---7---7-----7---7------------|
G|-----6---6---6---6--------------------|
D|--------------------------------------|
A|--------------------------------------|
E|--------------------------------------|


sick and tired of needing your attention..
guitar 1
e|----------------------------------------|
B|----------------------------------------|
G|----------7-7-------9-9----------77777--|
D|-4-4------7-7-------9-9-----9-9--77777--|
A|-4-4------5-5-------7-7-----9-9--55555--|
E|-2-2------------------------7-7---------|

guitar 2
e|-----------------------------------------------|
B|-----------------------------------------------|
G|----------7-7--7777-9-9-9999------------777777-|
D|-4-4-4444-7-7--7777-9-9-9999--9-9-9999--777777-|
A|-4-4-4444-5-5--5555-7-7-7777--9-9-9999--555555-|
E|-2-2-2222---------------------7-7-7777---------|

guitar 3
e|--7-------7-------7-------------------------------|
B|----7---7---7---7---7---7---7---------/10-9-7-----|
G|------9-------9-------9-------6----6----------9-6-|
D|---------------------------------7----------------|
A|--------------------------------------------------|
E|--------------------------------------------------|


BRIDGE
guitar 1 (strums the chords)

F#m           D
I'm standing in the pain
       E
That's smothering me
F#m          D
It's more becoming my own blood
E
Why can't you see?
         D                 Bm
That I'm starving for your love and I
         D (hold)                  
need attention or I'm gonna die

guitar 2
I'm standing in the pain..
e|---------------------------------------|
B|---------------------------------------|
G|----------7-7--7777-9-9-9999--9-9-9999-|
D|-4-4-4444-7-7--7777-9-9-9999--9-9-9999-| x2
A|-4-4-4444-5-5--5555-7-7-7777--7-7-7777-|
E|-2-2-2222------------------------------|

that I'm starving for your love...
e|---------------------------------------|
B|---------------------------------------|
G|-77777777-44444444---------------------|
D|-77777777-44444444---------------------|
A|-55555555-22222222---------------------|
E|---------------------------------------|


CHORUS

it's not what you said, it's the way you say it
guitar 1
e|-----------------------------------|
B|-----------------------------------|
G|----------7-7-------9-9------------|
D|-4-4------7-7-------9-9-----9-9----|
A|-4-4------5-5-------7-7-----9-9----|
E|-2-2------------------------7-7----|

guitar 2
e|---------------------------------------|
B|---------------------------------------|
G|----------777777777-99999999-----------|
D|-44444444-777777777-99999999--99999999-|
A|-44444444-555555555-77777777--99999999-|
E|-22222222---------------------77777777-|

guitar 3
e|----------------------------7---7---7---7----|
B|------------7---7---7---7-----7---7---7---7--|
G|--7-9-7-6-----6---6---6---6------------------|
D|---------------------------------------------|
A|---------------------------------------------|
E|---------------------------------------------|

e|-------------------7---7----5-4-2-0-2-|
B|---7---7---7---7-----7---7------------|
G|-----6---6---6---6--------------------|
D|--------------------------------------|
A|--------------------------------------|
E|--------------------------------------|


sick and tired of needing your attention..
guitar 1
e|---------------------------------------|
B|---------------------------------------|
G|----------7-7-------9-9----------------|
D|-4-4------7-7-------9-9-----9-9--------|
A|-4-4------5-5-------7-7-----9-9--------|
E|-2-2------------------------7-7--------|

guitar 2
e|---------------------------------------|
B|---------------------------------------|
G|----------777777777-99999999-----------|
D|-44444444-777777777-99999999--99999999-|
A|-44444444-555555555-77777777--99999999-|
E|-22222222---------------------77777777-|
guitar 3
e|--7-------7-------7-------------------------------|
B|----7---7---7---7---7---7---7---------/10-9-7-----|
G|------9-------9-------9-------6----6----------9-6-|
D|---------------------------------7----------------|
A|--------------------------------------------------|
E|--------------------------------------------------|

it's not what you said, it's the way you say it
guitar 1
e|-----------------------------------|
B|-----------------------------------|
G|----------7-7-------9-9------------|
D|-4-4------7-7-------9-9-----9-9----|
A|-4-4------5-5-------7-7-----9-9----|
E|-2-2------------------------7-7----|

guitar 2
e|---------------------------------------|
B|---------------------------------------|
G|----------777777777-99999999-----------|
D|-44444444-777777777-99999999--99999999-|
A|-44444444-555555555-77777777--99999999-|
E|-22222222---------------------77777777-|

guitar 3
e|----------------------------7---7---7---7----|
B|------------7---7---7---7-----7---7---7---7--|
G|--7-9-7-6-----6---6---6---6------------------|
D|---------------------------------------------|
A|---------------------------------------------|
E|---------------------------------------------|

e|-------------------7---7----5-4-2-0-2-|
B|---7---7---7---7-----7---7------------|
G|-----6---6---6---6--------------------|
D|--------------------------------------|
A|--------------------------------------|
E|--------------------------------------|

sick and tired of needing your attention..
guitar 1
e|---------------------------------------|
B|---------------------------------------|
G|----------7-7-------9-9----------------|
D|-4-4------7-7-------9-9-----9-9--------|
A|-4-4------5-5-------7-7-----9-9--------|
E|-2-2------------------------7-7--------|

guitar 2
e|---------------------------------------|
B|---------------------------------------|
G|----------777777777-99999999-----------|
D|-44444444-777777777-99999999--99999999-|
A|-44444444-555555555-77777777--99999999-|
E|-22222222---------------------77777777-|
guitar 3
e|--7-------7-------7-------------------------------|
B|----7---7---7---7---7---7---7---------/10-9-7-----|
G|------9-------9-------9-------6----6----------9-6-|
D|---------------------------------7----------------|
A|--------------------------------------------------|
E|--------------------------------------------------|

D (hold)
than live without your attention 

end on F#m
Tap to rate this tab
# A B C D E F G H I J K L M N O P Q R S T U V W X Y Z