Song name
# A B C D E F G H I J K L M N O P Q R S T U V W X Y Z

Tokio Hotel - Monsoon tab

Lead guitar:

Verse 1
|------------------------|------------------------|
|------------------------|------------------------|
|------------------------|------------------------| x5
|6--6--6--7--7--7--6--6--|2--2--2--3--3--3--2--2--|
|7--7--7--7--7--7--7--7--|3--3--3--3--3--3--3--3--|
|7--7--7--7--7--7--7--7--|3--3--3--3--3--3--3--3--|

|------------------------|------------------------|
|------------------------|------------------------|
|------------------------|------------------------|
|7--7--7--7--7--7--7--7--|------------------------|
|7--7--7--7--7--7--7--7--|2--2--2--2--2--2--2--2--|
|5--5--5--5--5--5--5--5--|3--3--3--3--3--3--3--3--|


|------------------------|------------------------|
|------------------------|------------------------|
|------------------------|------------------------| x3
|6--6--6--7--7--7--6--6--|2--2--2--3--3--3--2--2--|
|7--7--7--7--7--7--7--7--|3--3--3--3--3--3--3--3--|
|7--7--7--7--7--7--7--7--|3--3--3--3--3--3--3--3--|

|------------------------|----------------------|
|------------------------|----------------------|
|------------------------|----------------------|
|------------------------|----------------------|
|5--5--5--5--5--5--5--5--|4--4--4--4--4--4--4--4|
|5--5--5--5--5--5--5--5--|5--5--5--5--5--5--5--5|


Chorus 1
|--------------------------|------------------------|---------------------------|
|--8--------8--------8-----|7--------7--------7-----|--8--------8--------8------|
|-----9--------9--------9--|---7--------7--------7--|-----9--------9--------9---|
|--------10-------10-------|------7--------7--------|--------9--------9---------|
|--------------------------|------------------------|---------------------------|
|--------------------------|------------------------|---------------------------|


|--------------------------|------------------------|---------------------------|
|--7--------7--------7-----|8--------8--------8-----|--7--------7--------7------|
|-----7--------7--------7--|---9--------9--------9--|-----7--------7--------7---|
|--------9--------9--------|------10------10--------|--------7--------7--------7|
|--------------------------|------------------------|---------------------------|
|--------------------------|------------------------|---------------------------|

|--------------------------|--8--------8--------8---|
|--7--------7--------7-----|-----9--------9--------9|
|-----7--------7--------7--|--------9--------9------|
|--------9--------9--------|------------------------|
|--------------------------|------------------------|
|--------------------------|------------------------|

|--8--------8--------8-----|--7~~~-----|
|-----9--------9--------9--|--7~~~-----|
|--------10-------10-------|--7~~~-----|
|--------------------------|-----------|
|--------------------------|-----------|
|--------------------------|-----------|

1st -Echo effect- on

|----12-----14---12--------------|12-----14---12--15---------|
|--------------------13~~~~~~~~~-|---------------------------|
|--------------------------------|---------------------------|
|--------------------------------|---------------------------|
|--------------------------------|---------------------------|
|--------------------------------|---------------------------|

1st -Echo Effect- off

Verse 2
|------------------------|------------------------|
|------------------------|------------------------|
|------------------------|------------------------| x3
|--6--6--6--7--7--7--6--6|--2--2--2--3--3--3--2--2|
|--7--7--7--7--7--7--7--7|--3--3--3--3--3--3--3--3|
|--7--7--7--7--7--7--7--7|--3--3--3--3--3--3--3--3|

|------------------------|------------------------|
|------------------------|------------------------|
|------------------------|------------------------|
|--7--7--7--7--7--7--7--7|------------------------|
|--7--7--7--7--7--7--7--7|--2--2--2--2--2--2--2--2|
|--5--5--5--5--5--5--5--5|--3--3--3--3--3--3--3--3|


|------------------------|------------------------|
|------------------------|------------------------|
|------------------------|------------------------| x3
|--6--6--6--7--7--7--6--6|--2--2--2--3--3--3--2--2|
|--7--7--7--7--7--7--7--7|--3--3--3--3--3--3--3--3|
|--7--7--7--7--7--7--7--7|--3--3--3--3--3--3--3--3|

|------------------------|------------------------|
|------------------------|------------------------|
|------------------------|------------------------|
|------------------------|------------------------|
|--5--5--5--5--5--5--5--5|--4--4--4--4--4--4--4--4|
|--5--5--5--5--5--5--5--5|--5--5--5--5--5--5--5--5|


Chorus 2
|--------------------------|------------------------|---------------------------|
|--8--------8--------8-----|7--------7--------7-----|--8--------8--------8------|
|-----9--------9--------9--|---7--------7--------7--|-----9--------9--------9---|
|--------10-------10-------|------7--------7--------|--------9--------9---------|
|--------------------------|------------------------|---------------------------|
|--------------------------|------------------------|---------------------------|


|--------------------------|------------------------|---------------------------|
|--7--------7--------7-----|8--------8--------8-----|--7--------7--------7------|
|-----7--------7--------7--|---9--------9--------9--|-----7--------7--------7---|
|--------9--------9--------|------10------10--------|--------7--------7--------7|
|--------------------------|------------------------|---------------------------|
|--------------------------|------------------------|---------------------------|

|--------------------------|--8--------8--------8---| (2nd guitar comes in with
|--7--------7--------7-----|-----9--------9--------9|  overdrive and cords.)
|-----7--------7--------7--|--------9--------9------|
|--------9--------9--------|------------------------|
|--------------------------|------------------------|
|--------------------------|------------------------|

|--8--------8--------8-----|--7--------7--------7-----|--8--------8--------8-----|
|-----9--------9--------9--|-----7--------7--------7--|-----9--------9--------9--|
|--------10-------10-------|--------7--------7--------|--------9--------9--------|
|--------------------------|--------------------------|--------------------------|
|--------------------------|--------------------------|--------------------------|
|--------------------------|--------------------------|--------------------------|


|--------------------------|--8--------8--------8-----|--1--------1--------1-----|
|--7--------7--------7-----|-----9--------9--------9--|-----2--------2--------2--|
|-----7--------7--------7--|--------10-------10-------|--------1--------1--------|
|--------9--------9--------|--------------------------|--------------------------|
|--------------------------|--------------------------|--------------------------|
|--------------------------|--------------------------|--------------------------|


Bridge: ("Hey!")
-Overdrive- on

|----------------------------------|---------------------------|
|----------------------------------|---------------------------|
|--14--14--14--13--13--13--13--13--|10--10--10--9--9--9--9--9--| x5
|----------------------------------|---------------------------|
|----------------------------------|---------------------------|
|----------------------------------|---------------------------|

|----------------------------------|-----------------------------------|
|--14--14--14--13--13--13--13--13--|10--10--10--10--10--10--10--10--9~~|
|----------------------------------|-----------------------------------|
|----------------------------------|-----------------------------------|
|----------------------------------|-----------------------------------|
|----------------------------------|-----------------------------------|

-Overdrive- off

2nd -Echo Effect- on

|--12---14--12~~~~~~|~~~~~~~~~~~~~~|
|---------------13~~|~~~~~~~~~~~~~~|
|-------------------|--------------| x3
|-------------------|--------------|
|-------------------|--------------|
|-------------------|--------------|

|--12~~~~~~~~~~~~~|
|-----------------|
|-----------------|
|-----------------|
|-----------------|
|-----------------|

2nd -Echo Effect- off

Verse 3
-Overdrive- on

|------------------------|------------------------|------------------------|
|------------------------|------------------------|------------------------|
|------------------------|5--5--5--5--5--5--5--5--|7--7--7--7--7--7--7--7--|
|------------------------|5--5--5--5--5--5--5--5--|7--7--7--7--7--7--7--7--|
|------------------------|3--3--3--3--3--3--3--3--|5--5--5--5--5--5--5--5--|
|------------------------|3--3--3--3--3--3--3--3--|5--5--5--5--5--5--5--5--|

|------------------------|------------------------|------------------------|
|------------------------|------------------------|------------------------|
|9--9--9--9--9--9--9--9--|4--4--4--4--4--4--4--4--|5--5--5--5--5--5--5--5--|
|9--9--9--9--9--9--9--9--|4--4--4--4--4--4--4--4--|5--5--5--5--5--5--5--5--|
|7--7--7--7--7--7--7--7--|2--2--2--2--2--2--2--2--|3--3--3--3--3--3--3--3--|
|7--7--7--7--7--7--7--7--|2--2--2--2--2--2--2--2--|3--3--3--3--3--3--3--3--|

|------------------------|------------------------|------------------------|
|------------------------|------------------------|------------------------|
|7--7--7--7--7--7--7--7--|2--2--2--2--2--2--2--2--|9--9--9--9--9--9--9--9--|
|7--7--7--7--7--7--7--7--|2--2--2--2--2--2--2--2--|9--9--9--9--9--9--9--9--|
|5--5--5--5--5--5--5--5--|4--4--4--4--4--4--4--4--|7--7--7--7--7--7--7--7--|
|5--5--5--5--5--5--5--5--|4--4--4--4--4--4--4--4--|7--7--7--7--7--7--7--7--|

|------------------------|------------------------|------------------------|
|------------------------|------------------------|------------------------|
|5--5--5--5--5--5--5--5--|7--7--7--7--7--7--7--7--|9--9--9--9--9--9--9--9--|
|5--5--5--5--5--5--5--5--|7--7--7--7--7--7--7--7--|9--9--9--9--9--9--9--9--|
|3--3--3--3--3--3--3--3--|5--5--5--5--5--5--5--5--|7--7--7--7--7--7--7--7--|
|3--3--3--3--3--3--3--3--|5--5--5--5--5--5--5--5--|7--7--7--7--7--7--7--7--|

|------------------------|------------------------|------------------------|
|------------------------|------------------------|------------------------|
|--2--2--2--2--2--2--2--2|--5--5--5--5--5--5--5--5|--7--7--7--7--7--7--7--7|
|--2--2--2--2--2--2--2--2|--5--5--5--5--5--5--5--5|--7--7--7--7--7--7--7--7|
|--4--4--4--4--4--4--4--4|--3--3--3--3--3--3--3--3|--5--5--5--5--5--5--5--5|
|--4--4--4--4--4--4--4--4|--3--3--3--3--3--3--3--3|--5--5--5--5--5--5--5--5|


Ending

|--------------------------------|---------------------------|
|--------------------------------|---------------------------|
|13--13--13--14--14--14--13--13--|9--9--9--10--10--10--9--9--| x3
|--------------------------------|---------------------------|
|--------------------------------|---------------------------|
|--------------------------------|---------------------------|

|--------------------------------|0--0-----0-----0--0~~~--|
|--------------------------------|0--0-----0-----0--0~~~--|
|13--13--13--14--14--14--13--13--|0--0-----0-----0--0~~~--|
|--------------------------------|1--1-----1-----1--1~~~--|
|--------------------------------|2--2-----2-----2--2~~~--|
|--------------------------------|2--2-----2-----2--2~~~--|




2nd guitar:

During first "-echo effect-"

|----------------------|------------------------|
|----------------------|------------------------|
|----------------------|------------------------|
|6--6--6--7--7--7--6--6|--2--2--2--3--3--3--2--2|
|7--7--7--7--7--7--7--7|--3--3--3--3--3--3--3--3|
|7--7--7--7--7--7--7--7|--3--3--3--3--3--3--3--3|


During Bridge: ("Hey!")
-Overdrive on-

|------------------------|------------------------|
|------------------------|------------------------|
|7--7--7--7--7--7--7--7--|5--5--5--5--5--5--5--5--|
|7--7--7--7--7--7--7--7--|5--5--5--5--5--5--5--5--|
|5--5--5--5--5--5--5--5--|3--3--3--3--3--3--3--3--|
|5--5--5--5--5--5--5--5--|3--3--3--3--3--3--3--3--|


During Ending
-Overdrive on-

Ending

|------------------------|------------------------|
|------------------------|------------------------|
|9--9--9--9--9--9--9--9--|3--3--3--3--3--3--3--3--| x3
|9--9--9--9--9--9--9--9--|3--3--3--3--3--3--3--3--|
|7--7--7--7--7--7--7--7--|5--5--5--5--5--5--5--5--|
|7--7--7--7--7--7--7--7--|5--5--5--5--5--5--5--5--|

|------------------------|------------------------|
|------------------------|------------------------|
|9--9--9--9--9--9--9--9--|5--5-----5-----5--5~~~--|
|9--9--9--9--9--9--9--9--|5--5-----5-----5--5~~~--|
|7--7--7--7--7--7--7--7--|3--3-----3-----3--3~~~--|
|7--7--7--7--7--7--7--7--|3--3-----3-----3--3~~~--|
Tap to rate this tab
# A B C D E F G H I J K L M N O P Q R S T U V W X Y Z