Song name
# A B C D E F G H I J K L M N O P Q R S T U V W X Y Z

Tokio Hotel - In Your Shadow I Can Shine tab

Tuning: drop D (D-A-D-G-B-E)



Intro:
e|--------------|--------------|--------------|--------------|
b|--------------|--------------|--------------|--------------|
g|------3-----3-|------3-----3-|------3-----3-|------3-----3-|
d|------3-----3-|------3-----3-|------3-----3-|------3-----3-|
a|--------------|--------------|--2-2---2-2---|--2-2---2-2---|
d|--5-5---5-5---|--1-1---1-1---|--------------|--------------|  x2

Verse 1:
e|--------------|--------------|--------------|--------------|
b|--------------|--------------|--------------|--------------|
g|------3-----3-|------3-----3-|------3-----3-|------3-----3-|
d|------3-----3-|------3-----3-|------3-----3-|------3-----3-|
a|--------------|--------------|--2-2---2-2---|--2-2---2-2---|
d|--5-5---5-5---|--1-1---1-1---|--------------|--------------|  x4
I              Hate        my            life                             
I can’t…                     out of...

e|--------------|--------------|--------------|--------------|
b|--------------|--------------|--------------|--------------|
g|------3-----3-|------3-----3-|------3-----3-|------3-----3-|
d|------3-----3-|------3-----3-|------3-----3-|------3-----3-|
a|--------------|--------------|--------------|--5-5---5-5---|
d|--1-1---1-1---|--3-3---3-3---|--5-5---5-5---|--------------|
   touch           out of        time             just get lost without a
         sign       as long as

e|--------------|--------------|
b|--------------|--------------|
g|------3-----3-|------3-----3-|
d|------3-----3-|------3-----3-|
a|--------------|--------------|
d|--1-1---1-1---|--3-3---3-3---|
       you’ll stay by my side in your shadow I can

e|--------------|--------------|--------------|--------------|
b|--------------|--------------|--------------|--------------|
g|------3-----3-|------3-----3-|------3-----3-|------3-----3-|
d|------3-----3-|------3-----3-|------3-----3-|------3-----3-|
a|--------------|--------------|--------------|--------------|
d|--5-5---5-5---|--1-1---1-1---|--3-3---3-3---|--0-0---0-0---|
shine…                                      in your shadow i can shine  
in your shadow 

e|--------------|--------------|
b|--------------|--------------|
g|------3-----3-|------3-----3-|
d|------3-----3-|------3-----3-|
a|--------------|--------------|
d|--5-5---5-5---|--1-1---1-1---|
i can shine                                                  shine...

Verse 2:
e|--------------|--------------|--------------|--------------|
b|--------------|--------------|--------------|--------------|
g|------3-----3-|------3-----3-|------3-----3-|------3-----3-|
d|------3-----3-|------3-----3-|------3-----3-|------3-----3-|
a|--------------|--------------|--2-2---2-2---|--2-2---2-2---| 
d|--5-5---5-5---|--1-1---1-1---|--------------|--------------| x2
	you see my soul…

e|--------------|--------------|--------------|--------------|
b|--------------|--------------|--------------|--------------|
g|------3-----3-|------3-----3-|------3-----3-|------3-----3-|
d|------3-----3-|------3-----3-|------3-----3-|------3-----3-|
a|--------------|--------------|--------------|--5-5---5-5---|
d|--1-1---1-1---|--3-3---3-3---|--5-5---5-5---|--------------|
 into the dark..

e|--------------|--------------|
b|--------------|--------------|
g|------3-----3-|------3-----3-|
d|------3-----3-|------3-----3-|
a|--------------|--------------|
d|--1-1---1-1---|--3-3---3-3---|
 you’re the sun and I’m the moon               in your shadow i can


e|--------------|--------------|--------------|--------------|
b|--------------|--------------|--------------|--------------|
g|------3-----3-|------3-----3-|------3-----3-|------3-----3-|
d|------3-----3-|------3-----3-|------3-----3-|------3-----3-|
a|--------------|--------------|--------------|--------------|
d|--5-5---5-5---|--1-1---1-1---|--3-3---3-3---|--0-0---0-0---|
shine…                                      in your shadow i can shine   
in your shadow 

e|--------------|--------------|--------------|--------------|---------
b|--------------|--------------|--------------|--------------|-----------
g|------3-----3-|------3-----3-|--------------|--------------|--------------
d|------3-----3-|------3-----3-|------3-----3-|------3-----3-|------3--------
a|--------------|--------------|------3-----3-|------3-----3-|------3------
d|--5-5---5-5---|--1-1---1-1---|--3-3---3-3---|--3-3---3-3---|--3-3-----
i can shine                                                  shine....


play till the end
e|---------------|---------------|---------------|---------------|
b|---------------|---------------|---------------|---------------|
g|---------------|---------------|---------------|---------------|
d|6-6-6-6-6-6-6-6|2-2-2-2-2-2-2-2|4-4-4-4-4-4-4-4|4-4-4-4-4-4-4-4|
a|4-4-4-4-4-4-4-4|0-0-0-0-0-0-0-0|2-2-2-2-2-2-2-2|2-2-2-2-2-2-2-2|
d|---------------|---------------|---------------|---------------| 


Tap to rate this tab
# A B C D E F G H I J K L M N O P Q R S T U V W X Y Z