Song name
# A B C D E F G H I J K L M N O P Q R S T U V W X Y Z

Tokio Hotel - Zoom Into Me tab

Another Tab of "Zoom Into Me"

It's only the fist part, then i don't know >.<

THIS IS THE BEST, CORRECT 100%!! NOT LYING

Intro: (x2)

E|----------8---------8---------8---------8----------------------|
B|-------9---------9---------9---------9-------------------------|
G|---10--------10--------10--------10----------------------------|
D|---------------------------------------------------------------|
A|---------------------------------------------------------------|
E|---------------------------------------------------------------|

1° part:

E|----------8---------8---------8---------8----------------------|
B|-------9---------9---------9---------9-------------------------|
G|---10--------10--------10--------10----------------------------|
D|---------------------------------------------------------------|
A|---------------------------------------------------------------|
E|---------------------------------------------------------------|
         Is there anybody out there walking a-

E|----------8---------8---------8---------8----------------------|
B|-------9---------9---------9---------9-------------------------|
G|----6---------6---------6---------6----------------------------|
D|---------------------------------------------------------------|
A|---------------------------------------------------------------|
E|---------------------------------------------------------------|
    -lone

E|----------8---------8---------8---------8----------------------|
B|-------9---------9---------9---------9-------------------------|
G|---10--------10--------10--------10----------------------------|
D|---------------------------------------------------------------|
A|---------------------------------------------------------------|
E|---------------------------------------------------------------|
         Is there anybody out there out in the 

E|----------8---------8---------8---------8----------------------|
B|-------9---------9---------9---------9-------------------------|
G|----6---------6---------6---------6----------------------------|
D|---------------------------------------------------------------|
A|---------------------------------------------------------------|
E|---------------------------------------------------------------|
      cold


E|------6--------6--------9--------9-----------------------------|
B|---7--------7--------9--------9--------------------------------|
G|---------6--------6--------6--------6--------------------------|
D|---------------------------------------------------------------|
A|---------------------------------------------------------------|
E|---------------------------------------------------------------|
               One heartbeat             




E|------6--------6--------9--------9-----------------------------|
B|---7--------7--------9--------9--------------------------------|
G|---------6--------6--------6--------6--------------------------|
D|---------------------------------------------------------------|
A|---------------------------------------------------------------|
E|---------------------------------------------------------------|
           Lost in the 



E|-------------8--------8-----9--8-----6-------------------------|
B|----------9-------9---------------9-----9----------------------|
G|---------------6---------6-----------------6-------------------|
D|---------------------------------------------------------------|
A|---------------------------------------------------------------|
E|---------------------------------------------------------------|
            crowd
    
E|----------8---------8---------8---------8----------------------|
B|-------9---------9---------9---------9-------------------------|
G|---10--------10--------10--------10----------------------------|
D|---------------------------------------------------------------|
A|---------------------------------------------------------------|
E|---------------------------------------------------------------|
         Is there anybody shoutin’ what no one can 
E|----------8---------8---------8---------8----------------------|
B|-------9---------9---------9---------9-------------------------|
G|----6---------6---------6---------6----------------------------|
D|---------------------------------------------------------------|
A|---------------------------------------------------------------|
E|---------------------------------------------------------------|
      hear

E|----------8---------8---------8---------8----------------------|
B|-------9---------9---------9---------9-------------------------|
G|---10--------10--------10--------10----------------------------|
D|---------------------------------------------------------------|
A|---------------------------------------------------------------|
E|---------------------------------------------------------------|
         Is there anybody drownin’ pulled down by the 


E|----------8---------8---------8---------8----------------------|
B|-------9---------9---------9---------9-------------------------|
G|----6---------6---------6---------6----------------------------|
D|---------------------------------------------------------------|
A|---------------------------------------------------------------|
E|---------------------------------------------------------------|
      fear


E|------6--------6--------9--------9-----------------------------|
B|---7--------7--------9--------9--------------------------------|
G|---------6--------6--------6--------6--------------------------|
D|---------------------------------------------------------------|
A|---------------------------------------------------------------|
E|---------------------------------------------------------------|
               I feel you
        




E|------6--------6--------9--------9-----------------------------|
B|---7--------7--------9--------9--------------------------------|
G|---------6--------6--------6--------6--------------------------|
D|---------------------------------------------------------------|
A|---------------------------------------------------------------|
E|---------------------------------------------------------------|
           Don’t look a-



E|-------------8--------8-----------|
B|----------9-------9---------9-----|
G|---------------6---------6--------|
D|----------------------------------|
A|----------------------------------|
E|----------------------------------|
            -way


by La Milanesa



Tap to rate this tab
# A B C D E F G H I J K L M N O P Q R S T U V W X Y Z