Song name
# A B C D E F G H I J K L M N O P Q R S T U V W X Y Z

Tokio Hotel - Automatic tab

Ok. I listened to this song about 5 times, and this was the result. Hope it helps! If 
have any questions, email me.

Tuning: Standard
Tabbed By: HyperOffPocky
Email: Kagomeninjademon@yahoo.com

Intro (it get confusing but just keep practicing)
e|--------------------------------------------------------------------|
b|------------------------------------------------------------8---8---|
g|-----8----8-----8-----8-----8---10-----10-----10-----10-------8---8-|
d|-6-6--6-6---6-6---6-6---6-6---6----8-8----8-8----8-8----8-8---------|
a|--------------------------------------------------------------------|
e|--------------------------------------------------------------------|

Verse 1 (repeat until chorus starts)
e|--------------------------------------------------------------------|
b|------------------------------------------------------------8---8---|
g|-----8----8-----8-----8-----8---10-----10-----10-----10-------8---8-|
d|-6-6--6-6---6-6---6-6---6-6---6----8-8----8-8----8-8----8-8---------|
a|--------------------------------------------------------------------|
e|--------------------------------------------------------------------|


Chorus
e|-------------------------------------------------------|
b|-------------------------------------------------------|
g|-------------------------------------------------------|
d|-6-------10------8------10------6-------10------8------|
a|-6-(x12)-10-(x4)-8-(12)-10-(x4)-6-(x12)-10-(x4)-8-(12)-|
e|-4-------8-------6------8-------4-------8-------6------|

Verse 2 and Chorus are exactly the same!

Mini Solo 1
e|-------------------------------------|
b|-13(x8)-----------15(x8)-------------|
g|---------12(x8)-----------13(x8)-----|
d|-------------------------------------|
a|-------------------------------------|
e|-------------------------------------|

Bridge
e|--------------------------------|
g|--------------------------------|
d|-6------6------10-----8---------|
a|-6-(x8)-6-(x8)-10(x8)-8-(x8)----|
e|-4------3------8------6---------|

Silence....

Mini Solo 2 (x3)
e|-----------------------------------------------------------------------|
b|-----------------------------------------------------------------------|
g|-5------7------8------12-----10-----5------7------8------15-----10-----|
d|-x-(x8)-x-(x4)-x-(x4)-x-(x8)-x-(x8)-x-(x8)-x-(x4)-x-(x4)-x-(x8)-x-(x8)-|
a|-3------5------6------10-----8------3------5------6------13-----8------|
e|-----------------------------------------------------------------------|

Chorus

Mini Solo 3 (Same as Mini Solo 1)

End
e|---|
b|---|
g|---|
d|-6-|
a|-6-|
e|-4-|
Tap to rate this tab
# A B C D E F G H I J K L M N O P Q R S T U V W X Y Z