Song name
# A B C D E F G H I J K L M N O P Q R S T U V W X Y Z

Tokio Hotel - 1000 Meere tab

----------------------------------------------------------------------------
TOKIO HOTEL - 1000 Meere
----------------------------------------------------------------------------
Tabbed by : Avrill
E-mail : avrill_xx@yahoo.com
Tuning : standard


Verse:
the guitar begins to play about a second before the singer starts to sing

Die Stra�en leer ich dreh mich um die Nacht hat mich verloren...
e|-------------------------|
B|-------------------------|
G|------4------6---4-------|
D|------6------6---4-------| x2
A|------6------4---2-------|
E|------4------------------|

Dein Bild is sicher... 
e|--------------------------------------------------------|
B|------------0----------0-------------0------------0-----|
G|-------4------3-----1-----3-----6------3------4-----3---|
D|-------6------------2-----------6-------------4---------| x2
A|-------6------------2-----------4-------------2---------|
E|--------------------------------------------------------|

Vertrau mir
e|------------------------|
B|------------------------|
G|------------------------|
D|---222222222222222222---|
A|---222222222222222222---|
E|---000000000000000000---|

Chorus

Guitar 1
Wir m�ssen nur noch 1000 Meere weit... 
e|----------------------------------------------|
B|----------------------------------------------|
G|----------------------------------------------|
D|---66666666--22222222--999999999--44444444----| x4
A|---66666666--22222222--999999999--44444444----|
E|---44444444--00000000--777777777--22222222----|

Guitar 2
Wir m�ssen nur noch 1000 Meere weit...
e|-----------------------------------------|
B|-----------------------------------------|
G|------8-----------8----------------------|
D|---6-----6-----6----9----9-------8-------|
A|----------------------------9-------9----|
E|-----------------------------------------|

1000 Sterne ziehen vorbei
e|-----------------------------------------|
B|-----------------------------------------|
G|------8-----------9-----8-----6----------|
D|---6-----9-----9----9------9----9-8-6----|
A|-----------------------------------------|
E|-----------------------------------------|

Wir m�ssen nur noch 1000 Meere weit...
e|-----------------------------------------|
B|-----------------------------------------|
G|------8-----------8----------------------|
D|---6-----6-----6----9----9------8-9-11---|
A|----------------------------9------------|
E|-----------------------------------------|


Dann sind wir endlich frei
e|-----------------------------------------|
B|-----------------------------------------|
G|------8-----------9-----8-----6----------|
D|---6-----9-----9----9------9----9-8-6----|
A|-----------------------------------------|
E|-----------------------------------------|


Verse: 
Irgendwo ist der Ort den nur wir beiden kennen

Guitar 1
e|------------------------------------------------|
B|------------------------------------------------|
G|------------------------6-------------4---------|
D|------------------------6-------------4---------|
A|------------------------4-------------2---------|
E|------------------------------------------------|

Guitar 2
e|-----------------------------7-6----------7-6---|
B|------------------------------------------------|
G|------------------------9-----------------------|
D|---------------------------------------9--------|
A|------------------------------------------------|
E|------------------------------------------------|

Lief alles anders als gedacht, der Puls in den Adern ist viel zu schwach
Guitar 1
e|------------------------------------------------|
B|------------------------------------------------|
G|--4-----------1-----------6-----------4---------|
D|--6-----------2-----------6-----------4---------|
A|--6-----------2-----------4-----------2---------|
E|------------------------------------------------|

guitar 2 
e|-----7-6--------7-6----------7-6----------7-6---|
B|--------------------------------------7---------|
G|--8-----------9-----------9---------------------|
D|------------------------------------------------|
A|------------------------------------------------|
E|------------------------------------------------|

Doch irgendwie schlagen uns die Herzen durch die Nacht
Guitar 1
e|--------------------------------------------|
B|--------------------------------------------|
G|-----------------------66666666--44444444---|
D|--66666666--222222222--66666666--44444444---|
A|--66666666--222222222--44444444--22222222---|
E|--44444444--000000000-----------------------|

Guitar 2
e|-----7-6--------7-6----------7-6----------7-6---|
B|--------------------------------------7---------|
G|--8-----------9-----------9---------------------|
D|------------------------------------------------|
A|------------------------------------------------|
E|------------------------------------------------|

Vertrau mir
Guitar 1
e|------------------------|
B|------------------------|
G|------------------------|
D|--22222222222222222222--|
A|--22222222222222222222--|
E|--00000000000000000000--|


Chorus


Bridge
Niemand und nichts nehm' wir mit...
Guitar 1
e|---44444444--00000000--222222222--22222222---|
B|---44444444--00000000--444444444--22222222---|
G|---44444444--11111111--444444444--33333333---|
D|---66666666--22222222--444444444--44444444---| x2 
A|---66666666--22222222--222222222--44444444---|
E|---44444444--00000000-------------22222222---|

Guitar 2
e|---14-12-11-------------------14-12-11-------------14-|
B|------------14-12----------12----------14-12----------|
G|------------------11-13----------------------11-13----|
D|------------------------------------------------------|
A|------------------------------------------------------|
E|------------------------------------------------------|

1000 Meere weit, 1000 Jahre ohne Zeit...
e|--444444--000000--444444--000000-----|
B|--444444--000000--444444--000000-----|
G|--444444--111111--444444--111111-----|
D|--666666--222222--666666--222222-----| x2
A|--666666--222222--666666--222222-----|
E|--444444--000000--444444--000000-----|

1000 Sterne ziehn' vorbei
e|---------------------------------------------|
B|---------------------------------------------|
G|---66666666----------------------------------|
D|---66666666--22222222--999999999--44444444---| x3
A|---44444444--22222222--999999999--44444444---|
E|-------------00000000--777777777--22222222---|

Ich lass mich zu dir dreiben
e|----------------------------------22-2-2-22--|
B|----------------------------------22-2-2-22--|
G|---66666666-----------------------33-3-3-33--|
D|---66666666--22222222--999999999--44-4-4-44--| 
A|---44444444--22222222--999999999--44-4-4-44--|
E|-------------00000000--777777777--22-2-2-22--|


Chorus:
Guitar 1
Wir m�ssen nur noch 1000 Meere weit... 
e|----------------------------------------------|
B|----------------------------------------------|
G|----------------------------------------------|
D|---66666666--22222222--999999999--44444444----| x4
A|---66666666--22222222--999999999--44444444----|
E|---44444444--00000000--777777777--22222222----|

Guitar 2
Wir m�ssen nur noch 1000 Meere weit...
e|-----------------------------------------|
B|-----------------------------------------|
G|------8-----------8----------------------|
D|---6-----6-----6----9----9-------8-------|
A|----------------------------9-------9----|
E|-----------------------------------------|

1000 Sterne ziehen vorbei
e|-----------------------------------------|
B|-----------------------------------------|
G|------8-----------9-----8-----6----------|
D|---6-----9-----9----9------9----9-8-6----|
A|-----------------------------------------|
E|-----------------------------------------|

Wir m�ssen nur noch 1000 Meere weit...
e|-----------------------------------------|
B|-----------------------------------------|
G|------8-----------8----------------------|
D|---6-----6-----6----9----9------8-9-11---|
A|----------------------------9------------|
E|-----------------------------------------|


Dann sind wir endlich frei
e|-----------------------------------------|
B|-----------------------------------------|
G|------8-----------9-----8-----6----------|
D|---6-----9-----9----9------9----9-8-6----|
A|-----------------------------------------|
E|-----------------------------------------|


Guitar 1
Lass mich zu dir dreiben...
e|---------------------------------------------|
B|---------------------------------------------|
G|---66666666----------------------------------|
D|---66666666--22222222--999999999--44444444---| x3
A|---44444444--22222222--999999999--44444444---|
E|-------------00000000--777777777--22222222---|


e|----------------------------------------------|
B|----------------------------------------------|
G|---9�9~--9---9-9~--9---------------8-8~---8---|
D|-------9---------9----9-9~-9~--8--------9-----|
A|------------------------------9---------------|
E|----------------------------------------------|


1000 Meere weit
Guitar 1 
e|-----------|
B|-----------|
G|----4------|
D|----6------|
A|----6------|
E|-----------|

Veel plezier ! 
Have fun !
Tap to rate this tab
 
# A B C D E F G H I J K L M N O P Q R S T U V W X Y Z