Song name
# A B C D E F G H I J K L M N O P Q R S T U V W X Y Z

Tokio Hotel - World Behind My Wall tab

                     World Behind My Wall  by  Tokio Hotel
                              Created by lMxD15l

The tab, is 100% correct.
We are fans of Tokio Hotel from Peru in south-america.
Created to official fan club "tokio hotel peru", "thjunmj" and the "PinkZtinkz" too.
"^": pick up

Intro: (Clean)
e|-----------------------------------------------------------------| 
B|-----1---0--------------------------1---0------------------------|
G|-------------0---------------0--------------0---------------0----|
D|-----------------3---2---3----------------------3---2---3--------|
A|---3---3---3---3---3---3---3----3-3---3---3---3---3---3---3------|
E|-----------------------------------------------------------------|

Verse: (clean)
e|-----------------------------------------------------------------| 
B|-----1---0--------------------------1---0------------------------|
G|-------------0---------------0--------------0---------------0----| _
D|-----------------3---2---3----------------------3---2---3--------|  \
A|-3-3---3---3---3---3---3---3----3-3---3---3---3---3---3---3------|   \
E|-----------------------------------------------------------------|    \ 
                                                                        BIS
e|-----------------------------------------------------------------|    /
B|--------------------------------------1---0----------------------|   /
G|-----5---3------------------------------------0---------------0--| _/
D|-------------5---3-------3----6---5---------------3---2---3------| 
A|-3-------------------6--------------3---3---3---3---3---3---3----|
E|---4---4---4---4---4---4---4----4--------------------------------|


Chorus: (clean)

Guitar 1
e|-----------------------------------------------------|
B|--1111111111--1111111111--------------1111111111-----|
G|--0000000000--2222222222--------------0000000000-----|  _
D|--2222222222--2222222222--3333333333--2222222222-----|   \
A|--3333333333--0000000000--3333333333--3333333333-----|    \
E|--------------------------1111111111-----------------|     \
                                                            BIS  
Guitar 2                                                     /     
e|--0-----------0-----------1-----------0--------------|    /   
B|--1-----------1-----------1-----------1--------------|   / 
G|--0-----------2-----------2-----------0--------------| _/    
D|--2-----------2-----------3-----------2--------------|    
A|--3-----------0-----------3-----------3--------------|  
E|--------------------------1--------------------------|      


e|-----------------------------------| 
B|----1---0--------------------------|
G|------------0---------------0------|
D|----------------3---2---3----------|
A|--3---3---3---3---3---3---3--------|
E|-----------------------------------|

Verse: (clean)
e|-----------------------------------------------------------------| 
B|-----1---0--------------------------1---0------------------------|
G|-------------0---------------0--------------0---------------0----| 
D|-----------------3---2---3----------------------3---2---3--------|  
A|---3---3---3---3---3---3---3----3-3---3---3---3---3---3---3------|   
E|-----------------------------------------------------------------|    
                                                                       
e|-----------------------------------------------------------------|    
B|--------------------------------------1---0----------------------|   
G|-----5---3------------------------------------0---------------0--| 
D|-------------5---3-------3----6---5---------------3---2---3------| 
A|-3-------------------6--------------3---3---3---3---3---3---3----|
E|---4---4---4---4---4---4---4----4--------------------------------|






Bridge: (Clean)

e|-----------------------------------------------------------------------|
B|--1---1---1---1----0---0---0---0---0---0---0---0-----------------------|
G|----2---2---2---2----0---0---0---0---0---0---0---0---------------------|
D|----------------------------------------------------2---2---2---4------| 
A|------------------------------------------------------3---3---3--------|
E|-----------------------------------------------------------------------|

e|-----------------------------------------------------------------------|
B|--1---1---1---1----0---0---0---0---0---0---0---0----1---1---3---3------|
G|----2---2---2---2----0---0---0---0---0---0---0---0----2---2---2---2----|
D|-----------------------------------------------------------------------| 
A|-----------------------------------------------------------------------|
E|-----------------------------------------------------------------------|


Chorus: (clean)

Guitar 1
e|-----------------------------------------------------|
B|--1111111111--1111111111--------------1111111111-----|
G|--0000000000--2222222222--------------0000000000-----|  _
D|--2222222222--2222222222--3333333333--2222222222-----|   \
A|--3333333333--0000000000--3333333333--3333333333-----|    \
E|--------------------------1111111111-----------------|     \
                                                            BIS  
Guitar 2                                                     /     
e|--0-----------0-----------1-----------0--------------|    /   
B|--1-----------1-----------1-----------1--------------|   / 
G|--0-----------2-----------2-----------0--------------| _/    
D|--2-----------2-----------3-----------2--------------|    
A|--3-----------0-----------3-----------3--------------|  
E|--------------------------1--------------------------|      


         ^ ^ ^   ^ ^ ^   ^ ^ ^   ^
e|---8--888888--888888--888888--888-----|
B|---8--888888--888888--888888--888-----|
G|--------------------------------------|
D|--------------------------------------| x3
A|--------------------------------------|
E|--------------------------------------|


Bridge: (Distortion)

e|--------------------------------------------|
B|--------------------------------------------|
G|--77777777----------------------------------|
D|--77777777--77777777--55555555--33333333----| 
A|--55555555--77777777--55555555--33333333----|
E|------------55555555--33333333--11111111----|

e|--------------------------------------------|
B|--------------------------------------------|
G|--77777777----------------------------------|
D|--77777777--77777777--555555555555555555----| 
A|--55555555--77777777--555555555555555555----|
E|------------55555555--333333333333333333----|


Guitar Solo: (Distortion)
         ^        ^                 ^       ^                  ^         ^
e|------------------------------------------------------------------------------------|
B|------------------------------------------------------------------------------------|
G|--12-/-9-\-12-/-9999999999-\-12-/-9-\-12-/-9999999999-\-12-/-10-\-12-/-1010101010---|
D|---x-/-x-\--x-/-xxxxxxxxxx-\--x-/-x-\--x-/-xxxxxxxxxx-\--x-/--x-\--x-/--x-x-x-x-x---| 
A|--10-/-7-\-10-/-7777777777-\-10-/-7-\-10-/-7777777777-\-10-/--8-\-10-/--8-8-8-8-8---|
E|------------------------------------------------------------------------------------|






         ^        ^                 ^-^   ^-    ^-     -^-
e|------------------------------------------------------------------------------------|
B|------------------------------------------------------------------------------------|
G|--12-/-9-\-12-/-9999999999--/-5-\-777-\-99-\-1010-\-121212--------------------------|
D|---x-/-x-\--x-/-xxxxxxxxxx--/-x-\-xxx-\-xx-\--x-x-\--x-x-x--------------------------| 
A|--10-/-7-\-10-/-7777777777--/-3-\-555-\-77-\--8-8-\-101010--------------------------|
E|------------------------------------------------------------------------------------|


Final Chorus: ()

Guitar 1
e|--------------------------------------------------------|
B|--------------------------------------------------------|
G|--55555555555555--22222222222222------------------5-----|  
D|--55555555555555--22222222222222--33333333333333--5-----| 
A|--33333333333333--00000000000000--33333333333333--3-----|    
E|----------------------------------11111111111111--------|    
                                                             
Guitar 2                                                       
e|---------------------------------------------------------|     
B|---------------------------------------------------------|    
G|--12/9\12/9999999\12/9\12/9999999\12/10\12/101010-5------|
D|---x/x\-x/xxxxxxx\-x/x\-x/xxxxxxx\-x/-x\-x/-x-x-x-5------|    
A|--10/9\10/7777777\10/9\10/7777777\10/-8\10/-8-8-8-3------|  
E|---------------------------------------------------------|      

End: (Clean)

e|--------------------------------------| 
B|----1---0-------------------------1---|
G|------------0---------------0-----0---|
D|----------------3---2---3---------2---|
A|--3---3---3---3---3---3---3---3---3---|
E|--------------------------------------|

"Tokio Hotel" , please Come to Peru.
Official Fan Club of Tokio Hotel in Peru. http://tokiohotelperu.foroactivo.com/
Tap to rate this tab
 
# A B C D E F G H I J K L M N O P Q R S T U V W X Y Z