Song name
# A B C D E F G H I J K L M N O P Q R S T U V W X Y Z

Tokio Hotel - Strange tab

Tokio Hotel Ft Kerli - Strange

Tuning: Standard

(By the way: this is my first tab)


Intro

E-----------------|
B--0-0-0-0-0-0-1-1|
G-----------------|  x2
D-----------------|
A--2-2-3-3--------|
E----------3-3-2-2|


Verse 1


E-----------------|---------------|---------------|----------------|
B-----------------|---------------|---------------|----------------|
G-----------------|---------------|---------------|----------------|  x4
D-----------------|---------------|---------------|----------------|
A--2-2-2-2-2-2-2-2|3-3-3-3-3-3-3-3|---------------|----------------|
E-----------------|---------------|3-3-3-3-3-3-3-3|2-2-2-2-2-2-2-2-|


Chorus 1


E-----------------|---------------|---------------|---------------|
B-----------------|---------------|---------------|---------------|
G--4-4-4-4-4-4-4-4|5-5-5-5-5-5-5-5|---------------|---------------|  x3  
D--4-4-4-4-4-4-4-4|5-5-5-5-5-5-5-5|5-5-5-5-5-5-5-5|4-4-4-4-4-4-4-4|
A--2-2-2-2-2-2-2-2|3-3-3-3-3-3-3-3|5-5-5-5-5-5-5-5|4-4-4-4-4-4-4-4|
E-----------------|---------------|3-3-3-3-3-3-3-3|2-2-2-2-2-2-2-2|

E-----------------|---------------|---------------|
B-----------------|---------------|---------------|
G--4-4-4-4-4-4-4-4|5-5-5-5-5-5-5-5|5-5-5-5-5-5-5-5|
D--4-4-4-4-4-4-4-4|5-5-5-5-5-5-5-5|5-5-5-5-5-5-5-5|
A--2-2-2-2-2-2-2-2|3-3-3-3-3-3-3-3|3-3-3-3-3-3-3-3|
E-----------------|---------------|---------------|


Verse 2


E-----------------|---------------|---------------|---------------|
B-----------------|---------------|---------------|---------------|
G-----------------|---------------|---------------|---------------|  x4
D-----------------|---------------|---------------|---------------|
A--2-2-2-2-2-2-2-2|3-3-3-3-3-3-3-3|---------------|---------------|
E-----------------|---------------|3-3-3-3-3-3-3-3|2-2-2-2-2-2-2-2|


Chorus 2


E-----------------|---------------|---------------|---------------|
B-----------------|---------------|---------------|---------------|
G--4-4-4-4-4-4-4-4|5-5-5-5-5-5-5-5|---------------|---------------|  x3
D--4-4-4-4-4-4-4-4|5-5-5-5-5-5-5-5|5-5-5-5-5-5-5-5|4-4-4-4-4-4-4-4|
A--2-2-2-2-2-2-2-2|3-3-3-3-3-3-3-3|5-5-5-5-5-5-5-5|4-4-4-4-4-4-4-4|
E-----------------|---------------|3-3-3-3-3-3-3-3|2-2-2-2-2-2-2-2|

E-----------------|---------------|
B-----------------|---------------|
G--4-4-4-4-4-4-4-4|5-5-5-5-5-5-5-5|
D--4-4-4-4-4-4-4-4|5-5-5-5-5-5-5-5|
A--2-2-2-2-2-2-2-2|3-3-3-3-3-3-3-3|
E-----------------|---------------|


E------------|----------|----------|----------|
B------------|----------|----------|----------|
G--9--9--9999|7--7--7777|6--6--6666|5--5--5555|  x2
D--9--9--9999|7--7--7777|6--6--6666|5--5--5555|
A--7--7--7777|5--5--5555|4--4--4444|3--3--3333|
E------------|----------|----------|----------|


E---------------------------------|-----------------|---------------|
B---------------------------------|-----------------|---------------|
G---------------------------------|--5-5-5-5-5-5-5-5|7-7-7-7-7-7-7-7|
D--7-7-7-7-7-7-7-7-7-7-7-7-7-7-7-7|--5-5-5-5-5-5-5-5|7-7-7-7-7-7-7-7|
A--7-7-7-7-7-7-7-7-7-7-7-7-7-7-7-7|--3-3-3-3-3-3-3-3|5-5-5-5-5-5-5-5|
E--5-5-5-5-5-5-5-5-5-5-5-5-5-5-5-5|-----------------|---------------|

E---------------|
B---------------|
G--4---5--------|
D--4---5---5---4|
A--2---3---5---4|
E----------3---2|


Chorus 3


E-----------------|---------------|---------------|---------------|
B-----------------|---------------|---------------|---------------|
G--4-4-4-4-4-4-4-4|5-5-5-5-5-5-5-5|---------------|---------------|  x4
D--4-4-4-4-4-4-4-4|5-5-5-5-5-5-5-5|5-5-5-5-5-5-5-5|4-4-4-4-4-4-4-4|
A--2-2-2-2-2-2-2-2|3-3-3-3-3-3-3-3|5-5-5-5-5-5-5-5|4-4-4-4-4-4-4-4|
E-----------------|---------------|3-3-3-3-3-3-3-3|2-2-2-2-2-2-2-2|


At the end


E-----------------|-------------|
B-----------------|-------------|
G--4-4-4-4-4-4-4-4|5-5-5-5--5--5|
D--4-4-4-4-4-4-4-4|5-5-5-5--5--5|
A--2-2-2-2-2-2-2-2|3-3-3-3--3--3|
E-----------------|-------------|
Tap to rate this tab
# A B C D E F G H I J K L M N O P Q R S T U V W X Y Z