Song name
# A B C D E F G H I J K L M N O P Q R S T U V W X Y Z

Tokio Hotel - Strange tab

Tabbed by: XxTOKIO-HOTELxX
Youtube account: xxTokioHotelxx12  or  XxPARAMORExX12 

Im 100% thats the tab.. by the way this is my 2nd TAB


------------------------------=STRANGE=---------------------------------



Intro

E-----------------|
B--0-0-0-0-0-0-3-3|
G-----------------|  x2
D--2-2------------|
A------3-3--------|
E----------3-3-2-2|


Verse 1


E-----------------|-----------------|-----------------|-----------------|
B-----------------|-----------------|-----------------|-----------------|
G-2-2-2-2-2-2-2-2-|-2-2-2-2-2-2-2-2-|-5-5-5-5-5-5-5-5-|-----------------|  x4
D-4-4-4-4-4-4-4-4-|-5-5-5-5-5-5-5-5-|-7-7-7-7-7-7-7-7-|-5-5-5-5-5-5-5-5-|
A-----------------|-----------------|-----------------|-7-7-7-7-7-7-7-7-|
E-----------------|-----------------|-----------------|-----------------|


Chorus 1


E-----------------|---------------|---------------|---------------|
B-----------------|---------------|---------------|---------------|
G--4-4-4-4-4-4-4-4|5-5-5-5-5-5-5-5|---------------|---------------|  x3  
D--4-4-4-4-4-4-4-4|5-5-5-5-5-5-5-5|5-5-5-5-5-5-5-5|4-4-4-4-4-4-4-4|
A--2-2-2-2-2-2-2-2|3-3-3-3-3-3-3-3|5-5-5-5-5-5-5-5|4-4-4-4-4-4-4-4|
E-----------------|---------------|3-3-3-3-3-3-3-3|2-2-2-2-2-2-2-2|

E-----------------|---------------|---------------|
B-----------------|---------------|---------------|
G--4-4-4-4-4-4-4-4|5-5-5-5-5-5-5-5|5-5-5-5-5-5-5-5|
D--4-4-4-4-4-4-4-4|5-5-5-5-5-5-5-5|5-5-5-5-5-5-5-5|
A--2-2-2-2-2-2-2-2|3-3-3-3-3-3-3-3|3-3-3-3-3-3-3-3|
E-----------------|---------------|---------------|


Verse 2

E-----------------|-----------------|-----------------|-----------------|
B-----------------|-----------------|-----------------|-----------------|
G-2-2-2-2-2-2-2-2-|-2-2-2-2-2-2-2-2-|-5-5-5-5-5-5-5-5-|-----------------|  x4
D-4-4-4-4-4-4-4-4-|-5-5-5-5-5-5-5-5-|-7-7-7-7-7-7-7-7-|-5-5-5-5-5-5-5-5-|
A-----------------|-----------------|-----------------|-7-7-7-7-7-7-7-7-|
E-----------------|-----------------|-----------------|-----------------|



Chorus 2


E-----------------|---------------|---------------|---------------|
B-----------------|---------------|---------------|---------------|
G--4-4-4-4-4-4-4-4|5-5-5-5-5-5-5-5|---------------|---------------|  x3
D--4-4-4-4-4-4-4-4|5-5-5-5-5-5-5-5|5-5-5-5-5-5-5-5|4-4-4-4-4-4-4-4|
A--2-2-2-2-2-2-2-2|3-3-3-3-3-3-3-3|5-5-5-5-5-5-5-5|4-4-4-4-4-4-4-4|
E-----------------|---------------|3-3-3-3-3-3-3-3|2-2-2-2-2-2-2-2|

E-----------------|---------------|
B-----------------|---------------|
G--4-4-4-4-4-4-4-4|5-5-5-5-5-5-5-5|
D--4-4-4-4-4-4-4-4|5-5-5-5-5-5-5-5|
A--2-2-2-2-2-2-2-2|3-3-3-3-3-3-3-3|
E-----------------|---------------|


Brigde:

E------------|----------|----------|----------|
B------------|----------|----------|----------|
G--9--9--9999|7--7--7777|6--6--6666|5--5--5555|  x2
D--x--x--xxxx|x--x--xxxx|x--x--xxxx|x--x--xxxx|
A--7--7--7777|5--5--5555|4--4--4444|3--3--3333|
E------------|----------|----------|----------|


E---------------------------------|-----------------|---------------|
B---------------------------------|-----------------|---------------|
G---------------------------------|--5-5-5-5-5-5-5-5|7-7-7-7-7-7-7-7|
D--7-7-7-7-7-7-7-7-7-7-7-7-7-7-7-7|--x-x-x-x-x-x-x-x|x-x-x-x-x-x-x-x|
A--7-7-7-7-7-7-7-7-7-7-7-7-7-7-7-7|--3-3-3-3-3-3-3-3|5-5-5-5-5-5-5-5|
E--5-5-5-5-5-5-5-5-5-5-5-5-5-5-5-5|-----------------|---------------|



refrain:
E---------------|
B---------------|
G--4---5--------|
D--4---5---5---4|
A--2---3---5---4|
E----------3---2|



Chorus 3:

E-----------------|---------------|---------------|---------------|
B-----------------|---------------|---------------|---------------|
G--4-4-4-4-4-4-4-4|5-5-5-5-5-5-5-5|---------------|---------------|  x4
D--4-4-4-4-4-4-4-4|5-5-5-5-5-5-5-5|5-5-5-5-5-5-5-5|4-4-4-4-4-4-4-4|
A--2-2-2-2-2-2-2-2|3-3-3-3-3-3-3-3|5-5-5-5-5-5-5-5|4-4-4-4-4-4-4-4|
E-----------------|---------------|3-3-3-3-3-3-3-3|2-2-2-2-2-2-2-2|


OUTRO:

E-----------------|-------------|
B-----------------|-------------|
G--4-4-4-4-4-4-4-4|5-5-5-5--5--5|
D--4-4-4-4-4-4-4-4|5-5-5-5--5--5|
A--2-2-2-2-2-2-2-2|3-3-3-3--3--3|
E-----------------|-------------|
Tap to rate this tab
 
# A B C D E F G H I J K L M N O P Q R S T U V W X Y Z