Song name
# A B C D E F G H I J K L M N O P Q R S T U V W X Y Z

Tokio Hotel - Zoom Into Me tab

Hi You,
This is my first time as pos-it on Ultimate Guitar.
When I heard this song, I was searching for tabs.
But there wasnít the thing where I searched for.
So, I made it by myself. This is my first xíD
Enjoy :D

Em                            Cmaj7
e|----------------------------------------------------|
B|------0------0------0-----0----0-----0----0-----0---|
G|----0------0------0-----0----0-----0----0-----0-----|
D|----------------------------------------------------|         2x
A|--2------2------2-----2----3-----3-----3----3-------|
E|----------------------------------------------------|
   Is there anybody out there, Walking alone
   Is there anybody out there, Out in the cold

    F             Am             F              Am             Em7
e|----------------------------------------------------------------------------|
B|----1-----1------1------1-------1------1-------1------1---------0-----0-----|
G|------2-----2------2------2-------2------2-------2------2---------0-----0---|
B|----------------------------------------------------------------------------|
A|--3-----3-------0-----0-------3------3-------0------0---------2------2------|
E|----------------------------------------------------------------------------|
           One heartbeat        Lost in the crowd

e|-----------------|
B|--1--0-----------|
G|--------2--0-----|
D|-----------------|
A|-----------------|

Em                            Cmaj7
e|----------------------------------------------------|
B|------0------0------0-----0----0-----0----0-----0---|
G|----0------0------0-----0----0-----0----0-----0-----|
D|----------------------------------------------------| 2x
A|--2------2------2-----2----3-----3-----3----3-------|
E|----------------------------------------------------|

   Is there anybody shouting, What no one can hear
   Is there anybody drowning, Pulled down by the fear

    F             Am             F              Am             Em7
e|----------------------------------------------------------------------------|
B|----1-----1------1------1-------1------1-------1------1---------0-----0-----|
G|------2-----2------2------2-------2------2-------2------2---------0-----0---|
B|----------------------------------------------------------------------------|
A|--3-----3-------0-----0-------3------3-------0------0---------2------2------|
E|----------------------------------------------------------------------------|
          I feel you             Donít look away

CHORUS
           C Am
Zoom into me
          Em G
Zoom into me
C  Am         Em     G
I know youíre scared
F     C         G      Dm
 When you canít breathe
          F
I will be there
      C   G
Zoom into me
e|-----------------|
B|--1--0-----------|
G|--------2--0-----|
D|-----------------|
A|-----------------|

 Em                            Cmaj7
e|----------------------------------------------------|
B|------0------0------0-----0----0-----0----0-----0---|
G|----0------0------0-----0----0-----0----0-----0-----|
D|----------------------------------------------------| 2x
A|--2------2------2-----2----3-----3-----3----3-------|
E|----------------------------------------------------|

 Is there anybody laughing, To kill the pain
 Is there anybody screaming, The silence away

    F             Am             F              Am             Em7
e|----------------------------------------------------------------------------|
B|----1-----1------1------1-------1------1-------1------1---------0-----0-----|
G|------2-----2------2------2-------2------2-------2------2---------0-----0---|
B|----------------------------------------------------------------------------|
A|--3-----3-------0-----0-------3------3-------0------0---------2------2------|
E|----------------------------------------------------------------------------|
           Just Open         Your jaded eyes

 CHORUS
           C Am
Zoom into me
          Em G
Zoom into me
C  Am         Em     G
I know youíre scared
F     C         G      Dm
 When you canít breathe
          F
I will be there
      C   G
Zoom into me

BRIDGE
Am      F
Come closer
Am     F   Am
And closer

e|---------3----------------0--------------3------2----------------|
B|-----1------1------3----3----3--------1----1------3----3---------|
G|---0-----------0------2--------0---0----------0------2----0------| 2x musical part2
D|-----------------------------------------------------------------|
A|--3-------------------------------3------------------------------|..
E|-----------------------------------------------------------------|

F     C         G     Dm
 When you canít breathe
            F
I will be there
      C   G
Zoom into me

CHORUS
           C Am
Zoom into me
          Em G
Zoom into me
         C
When the world
                    Am
Cuts your soul into pieces
                 Em    G
And you start to bleed
F     C         G     Dm
 When you canít breathe
            F
I will be there
      C   G
Zoom into me
Tap to rate this tab
# A B C D E F G H I J K L M N O P Q R S T U V W X Y Z