Song name
# A B C D E F G H I J K L M N O P Q R S T U V W X Y Z

Tokio Hotel - Automatisch tab

-------------------------------------------------------------------------------
			     Automatisch - Tokio Hotel
-------------------------------------------------------------------------------

Tabbed by:Magdalena A.K.A RetteMich483

Email:RetteMich_483@hotmail.com

Tuning: Standard

The other tab on here didn't sound right. Email me if you
have any problems or are confused.100% right!!! Well i think
I don't like the verse but it sounds right I might change it
later on if you guys find anything wrong with it The number
under the chords tells you how many times to play it.


Intro:
e|--------------------------------------------------------------------------|
B|-----------------------------8---8---------------------------------8---8--|
G|-----8-----8---8---8---8---8---8---8-------8-----8---8---8---8---8---8---8|
D|-6-6---6-6---6---6---6---6-------------8-8---8-8---8---8---8---8----------|
A|--------------------------------------------------------------------------|
E|--------------------------------------------------------------------------|


Verse: 1
e|--------------------------------------------------------------------------|
B|-----------------------------8---8---------------------------------8---8--|
G|-----8-----8---8---8---8---8---8---8-------8-----8---8---8---8---8---8---8| x3
D|-6-6---6-6---6---6---6---6-------------8-8---8-8---8---8---8---8----------|
A|--------------------------------------------------------------------------|
E|--------------------------------------------------------------------------|

Chorus: 1
e|----------------------------------------------------------------------------|
B|----------------------------------------------------------------------------|
G|----------------------------------------------------------------------------|
D|-666666666666-10101010-888888888888-5555-666666666666-10101010-888888888888-|
A|-666666666666-10101010-888888888888-5555-666666666666-10101010-888888888888-|
E|-444444444444-8-8-8-8--666666666666-3333-444444444444-8-8-8-8--666666666666-|
        12         4           12      4       12          4          12


Verse:2
e|--------------------------------------------------------------------------|
B|-----------------------------8---8---------------------------------8---8--|
G|-----8-----8---8---8---8---8---8---8-------8-----8---8---8---8---8---8---8| x2
D|-6-6---6-6---6---6---6---6-------------8-8---8-8---8---8---8---8----------|
A|--------------------------------------------------------------------------|
E|--------------------------------------------------------------------------|

Chorus 2
e|----------------------------------------------------------------------------|
B|----------------------------------------------------------------------------|
G|----------------------------------------------------------------------------|
D|-666666666666-10101010-888888888888-5555-666666666666-10101010-888888888888-|
A|-666666666666-10101010-888888888888-5555-666666666666-10101010-888888888888-|
E|-444444444444-8-8-8-8--666666666666-3333-444444444444-8-8-8-8--666666666666-|
        12         4           12      4       12          4          12

Solo: way 1
e|---------------------------------------------------------------------|
B|-1313131313131313-------------------1515151515151515-----------------|
G|-------------------1212121212121212----------------------------------|
D|-----------------------------------------------------1313131313131313|
A|---------------------------------------------------------------------|
E|---------------------------------------------------------------------|
        8                 8                8                8

(there are two ways to play it. Way 1 and Way 2 :D Play whatever one you feel is easier 
you)

Solo: way 2
e|---------------------------------------------------------------------|
B|-1313131313131313-88888888--1515151515151515-------------------------|
G|---------------------------------------------88888888----------------|
D|---------------------------------------------------------------------|
A|---------------------------------------------------------------------|
E|---------------------------------------------------------------------|
       8               8             8              8

Bridge
e|---------------------------------------------|
B|---------------------------------------------|
G|---------------------------------------------|
D|-66666666-55555555-1010101010101010-88888888-| Play this 3 Times
A|-66666666-55555555-1010101010101010-88888888-|
E|-44444444-33333333-8-8-8-8-8-8-8-8--66666666-|
     8         8            8             8

Piano converted into Guitar
e|----------------------------------------------------------------|
B|----------------------------------------------------------------|
G|-8-7----8-7----8-7---8-7---8-7----------------------------------|
D|-----5------5------5-----5-----5--------------------------------|
A|----------------------------------------------------------------|
E|----------------------------------------------------------------|


Solo:2
e|-----------------------------------------------------------|
B|-----------------------------------------------------------|
G|-55555555-7777-8888--1212121212121212--1010101010101010----|
D|-xxxxxxxx-xxxx-xxxx--xxxxxxxxxxxxxxxx--x-x-x-x-x-x-x-x-----|
A|-33333333-5555-6666--1010101010101010--8-8-8-8-8-8-8-8-----|
E|-----------------------------------------------------------|

e|-----------------------------------------------------------|
B|-----------------------------------------------------------|
G|-55555555-7777-8888--1515151515151515--1010101010101010----|
D|-xxxxxxxx-xxxx-xxxx--xxxxxxxxxxxxxxxx--x-x-x-x-x-x-x-x-----|
A|-33333333-5555-6666--1313131313131313--8-8-8-8-8-8-8-8-----|
E|-----------------------------------------------------------|


Chorus 3
e|----------------------------------------------------------------------------|
B|----------------------------------------------------------------------------|
G|----------------------------------------------------------------------------|
D|-666666666666-10101010-888888888888-5555-666666666666-10101010-888888888888-|
A|-666666666666-10101010-888888888888-5555-666666666666-10101010-888888888888-|
E|-444444444444-8-8-8-8--666666666666-3333-444444444444-8-8-8-8--666666666666-|
        12         4           12      4       12          4          12


Solo:
e|----------------------------------------------------------------------|
B|-1313131313131313-------------------1515151515151515------------------|
G|-------------------1212121212121212-----------------------------------|
D|-----------------------------------------------------1313131313131313-|
A|----------------------------------------------------------------------|
E|----------------------------------------------------------------------|
       8                   8                8               8

(Remember, there are two ways to play it. Way 1 and Way 2 :D Play whatever one you feel 
easier for you)

Solo:
e|---------------------------------------------------------------------|
B|-1313131313131313-88888888--1515151515151515-------------------------|
G|---------------------------------------------88888888----------------|
D|---------------------------------------------------------------------|
A|---------------------------------------------------------------------|
E|---------------------------------------------------------------------|
       8                8          8              8

outro:Let it ring.
e|------------------------------------------------------|
B|------------------------------------------------------|
G|------------------------------------------------------|
D|-6~---------------------------------------------------|
A|-6~---------------------------------------------------|
E|-4~---------------------------------------------------|


Let it ring.

************************************

| /   slide up
| \   slide down
| h   hammer-on
| p   pull-off
| ~   vibrato
| +   harmonic
| x   Mute note
| b   Bend
| pb  Pre-bend
| br  Bend release
| pbr Pre-bend release
| brb Bend release bend

************************************
Tap to rate this tab
# A B C D E F G H I J K L M N O P Q R S T U V W X Y Z