Song name
# A B C D E F G H I J K L M N O P Q R S T U V W X Y Z

Tokio Hotel - Automatic tab

I don't know if this is it i did it a while ago and just uploaded it anyway enjoy.

Email:William11163@yahoo.com
Intro
e|---------------------------------------------|
B|---------------------------------------------|
G|-----8------8------8----10-----10----10--10--|
D|-8-8---8--8---8--8----8----8-8-----8----8----|
A|---------------------------------------------|
E|---------------------------------------------|



Verse
e|-------------------------------------------|
B|--------------------------------8----8-----|
G|-----8------8---8---8---8---8-----8----8---|
D|-6-6---6--6---6---6---6---6----------------|
A|-------------------------------------------|
E|-------------------------------------------|

e|-------------------------------------------|  
B|--------------------------------8----8-----|
G|-----8------8---8---8---8---8-----8----8---|
D|-8-8---8--8---8---8---8---8----------------|
A|-------------------------------------------|
E|-------------------------------------------|
repeat this 



Chorus 
e|---------------------------------------------------------------------|
B|---------------------------------------------------------------------|
G|---------------------------------------------------------------------|
D|-6666666666666-101010-888888888-101010-666666666666-101010-888888888-|
A|-6666666666666-101010-888888888-101010-666666666666-101010-888888888-|
E|-4444444444444-8-8-8--666666666-8-8-8--444444444444-8-8-8--666666666-|




VERSE same as 1st




Chorus same as 1st



Solo #1
e|------------------------------------------------------------------|
B|-13(hit 20 times)----------------15(hit 20 times)-----------------|
G|-----------------12(hit 20 times)---------------------------------|
D|-------------------------------------------------13(Hit 20 times)-|
A|------------------------------------------------------------------|
E|------------------------------------------------------------------|




Bridge
e|--------------------------------------------|
B|--------------------------------------------|
G|--------------------------------------------|
D|-66666666-66666666-10101010101010-888888888-| Repeat 3 Times
A|-66666666-66666666-10101010101010-888888888-|
E|-44444444-33333333-8-8-8-8-8-8-8--666666666-|



There is no break



Solo #2
e|--------------------------------------------------------|
B|--------------------------------------------------------|
G|-55555555-7777-8888--1212121212121212--1010101010101010-|
D|-xxxxxxxx-xxxx-xxxx--xxxxxxxxxxxxxxxx--x-x-x-x-x-x-x-x--|
A|-33333333-5555-6666--1010101010101010--8-8-8-8-8-8-8-8--|
E|--------------------------------------------------------|

e|--------------------------------------------------------|
B|--------------------------------------------------------|
G|-55555555-7777-8888--1515151515151515--1010101010101010-|
D|-xxxxxxxx-xxxx-xxxx--xxxxxxxxxxxxxxxx--x-x-x-x-x-x-x-x--|
A|-33333333-5555-6666--1313131313131313--8-8-8-8-8-8-8-8--|
E|--------------------------------------------------------|




CHORUS
e|---------------------------------------------------------------------|
B|---------------------------------------------------------------------|
G|---------------------------------------------------------------------|
D|-6666666666666-101010-888888888-101010-666666666666-101010-888888888-|
A|-6666666666666-101010-888888888-101010-666666666666-101010-888888888-|
E|-4444444444444-8-8-8--666666666-8-8-8--444444444444-8-8-8--666666666-|




Solo #3
e|------------------------------------------------------------------|
B|-13(hit 20 times)----------------15(hit 20 times)-----------------|
G|-----------------12(hit 20 times)---------------------------------|
D|-------------------------------------------------13(Hit 20 times)-|
A|------------------------------------------------------------------|
E|------------------------------------------------------------------|

e|----|
B|----|
G|----|
D|-6~-|
A|-6~-|
E|-4~-|	


If u have any questions just email me.			
Tap to rate this tab
# A B C D E F G H I J K L M N O P Q R S T U V W X Y Z